top separator

Home

Forum

What's New

Submit a Tab

FAQ

Links

Contact Us

Link to Us

MetalTabs.com logo

Bands

0-9

A

B

C

D

E

F

G

H

I

J

K

L

M

N

O

P

Q

R

S

T

U

V

W

X

Y

Z

Search

What

Where
 

Cephalic Carnage - "Anthro Emesis" Guitar Tab

Plain Text Version
More Cephalic Carnage Tabs

Hits: 7406
Rated: 4.50 out of 5 (8 votes)
Updated: 2005-08-09 17:21:08

 

By:

Father Death

sendpm.gif

email.gif

Co-authored by:

Dyldo

sendpm.gif

email.gif

 

Yura

sendpm.gif

email.gif

Important note
This tab is available online because we obtained explicit permission from Cephalic Carnage or their label.


#----------------------------------PLEASE NOTE---------------------------------#
#This file is the author's own work and represents their interpretation of the #
#song. You may only use this file for private study, scholarship, or research. #
#Unless specified otherwise, this is NOT an official tab from the band members.#
#------------------------------------------------------------------------------#

  Visit MetalTabs.com for more metal tablature
  
Band:   CEPHALIC CARNAGE
Album:  Lucid Interval
Song:   Anthro Emesis

Transcribed by: Chris Humeniuk
Email: father_death_666@hotmail.com

Assistance: Darko

Solo: Yura Kowalchuk
Email: yura_kowalchuk@mail.ru

Tuning: 2.5 steps down (B)

Keys:
 < > - pinch harmonic
 ___ - palm mute
  b  - bend
  "  - tremelo pick
  h  - hammer on
 / \ - slide
  p  - pull off


(Gtr 1)
|-----------------------------------------------------------------
|-----------------------------------------------------------------
|-----------------------------------------------------------------
|---3-2---1-----2-------------------3-2---1---3-2-------------3-2-
|-2-----1---1---2-----------------2-----1---1-3-2-------------3-2-
|-------------1-0-----------------------------1-0-------------1-0-

(Gtr 2)
|-----------------------------------------------------------------
|-----------------------------------------------------------------
|-----------------------------------------------------------------
|---------------2---3-2---1---3-2-------------3-2---3-2---1---3-2-
|---------------2-------1---1-3-2-------------3-2-------1---1-3-2-
|---------------0-------------1-0-------------1-0-------------1-0-

(Gtr 1)
 -----------------------------------------------------------------|
 -----------------------------------------------------------------|
 -----------------------------------------------------------------|
 ---3-2---1---------3-2---1---------3-2---1---3-2-------------3-2-|
 -2-----1---1-----2-----1---1-----2-----1---1-3-2-------------3-2-|
 -------------1-0-------------1-0-------------1-0-------------1-0-|

(Gtr 2)
 -----------------------------------------------------------------|
 -----------------------------------------------------------------|
 -----------------------------------------------------------------|
 -------------3-2-------------3-2-------------3-2---3-2---1-------|
 -------------3-2-------------3-2-------------3-2-------1---1-----|
 -------------1-0-------------1-0-------------1-0-------------1-0-|


(Gtr 1 & 2)
|----------------------------------|
|----------------------------------|
|----------------------------------|
|-9-10-9-8-8-8-------5-4-3-3-3-3-4-|
|-9--8-7-8-6-8-------3-2-3-1-3-1-2-|
|-7------6---6-1-0-------1---1-----| 2x


(Gtr 1)
|---------------------------------------------|
|---------------------------------------------|
|---------------------------------------------|
|---<3>-<2>---1---------3-3-2-2----<1>b-------|
|-2---------1---1---------------1-1-----1-1---|
|-----------------00-0------------------1-1-0-|
            _   ____    ___________     ___

(Gtr 2)
|---------------------------------------------|
|---------------------------------------------|
|---------------------------------------------|
|----5"-4"----3"---------5"-4"----3"----------|
|-4"-------3"---------4"-------3"----3"-1"-2"-|
|----------------0000-------------------------| 2x
                 ____


(Gtr 1)
|------------------------------------------------
|------------------------------------------------
|------------------------------------------------
|----3"-2"----1"------------3"-2"----1"----------
|-2"-------1"----1"---------------1"----1"-------
|-------------------1"-0"------------------1"-0"-

(Gtr 2)
|------------------------------------------------
|------------------------------------------------
|------------------------------------------------
|----3"-2"----1"------------3"-2"----1"----------
|-2"-------1"----1"---------------1"----1"-------
|-------------------1"-0"------------------1"-0"-

(Gtr 1)
 ------------------------------------------------|
 ------------------------------------------------|
 ------------------------------------------------|
 ----3"-2"----1"------------3"-2"----1"----------|
 -2"-------1"----1"---------------1"----1"-------|
 -------------------1"-0"------------------1"-0"-|

(Gtr 2)
 ------------------------------------------------|
 ------------------------------------------------|
 ---------------------------5"-4"----3"----------|
 ----3"-2"----1"------------------3"----3"-------|
 -2"-------1"----1"------------------------------|
 -------------------1"-0"------------------1"-0"-|

(Gtr 1)
|------------------------------------------------|
|------------------------------------------------|
|------------------------------------------------|
|----3"-2"----1"------------3"-2"----1"----------|
|-2"-------1"----1"---------------1"----1"-------|
|-------------------1"-0"------------------1"-0"-|

(Gtr 2)
|------------------------------------------------|
|------------------------------------------------|
|------------------------------------------------|
|----3"-2"----1"------------3"-2"----1"----------|
|-2"-------1"----1"---------------1"----1"-------|
|-------------------1"-0"------------------1"-0"-| 2x


(Gtr 1 & 2)
|-------------------------------------------------------|
|-------------------------------------------------------|
|-------------------------------------------------------|
|----3"-2"----1"------------3"-2"----1"-----------4h6h7-|
|-2"-------1"----1"---------------1"----1"--4h6h7-------|
|-------------------1"-0"-------------------------------| 2x
  _____________________________________________________


(light palm muting)
|-------------|
|-5-5-5-5-3---|
|-3-3-3-3-2---|
|-------------|
|-------------|
|-------------|

|-----------------|     |-----|
|-5-5-5-5-3-3-0-0-|     |-----|
|-3-3-3-3-2-2-0-0-|     |-3---|
|-----------------|     |-3-3-|
|-----------------|     |-1-3-|
|-----------------| 4x  |---1-|


|-------------------------------------------------------|
|-------------------------------------------------------|
|-------------------------------------------------------|
|-------------------------------------------------------|
|-----------------------5---5-6-----------------------5-|
|-3-3-0--3-3-0--0-3-2-3---3-----3-3-0--3-3-0--0-3-2-3-3-|
  ___    ___    ___________________    ___    _______

|-------------------------------|
|-------------------------------|
|-------------------------------|
|-------------------------------|
|-----------------------5---5-6-|
|-3-3-0--3-3-0--0-3-2-3---3-----| 5x
  ___    ___    _______________

(Gtr 1)
|-------------------------------|
|-------------------------------|
|-------------------------------|
|-------------------------------|
|-----------------------5---5-6-|
|-3-3-0--3-3-0--0-3-2-3---3-----|
  ___    ___    _______________

(Gtr 2)
|-------------------------------|
|-------------------------------|
|----------------------<4>------|
|--------------------------<2>b-|
|-------------------------------|
|-3-3-0--3-3-0--0-3-2-3---------|
  ___    ___    _______

(Gtr 1 & 2)
|-------------------------------------------------------|
|-------------------------------------------------------|
|-------------------------------------------------------|
|-------------------------------------------------------|
|-----------------------5---5-6-----------------------5-|
|-3-3-0--3-3-0--0-3-2-3---3-----3-3-0--3-3-0--0-3-2-3-3-|
  ___    ___    ___________________    ___    _______

|-------------------------------|     |---------------|
|-------------------------------|     |---------------|
|-------------------------------|     |---------------|
|-------------------------------|     |---------------|
|-----------------------5---5-6-|     |---------------|
|-3-3-0--3-3-0--0-3-2-3---3-----| 2x  |-3-3-0--3-3-0--|
  ___    ___    _______________         ___    ___


|-----------------------------------------------|
|-----------------------------------------------|
|-----------------------------------------------|
|------------<2>---------<1>--------------6"----|
|-3-------------3-----------2-------------4"--3-|
|---4-5-2-1-------4-5-4-3-----3-4-3-2-3-2-4"--3-|
  _______       _________   _____   _____     _

|-----------------------------------------------|
|-----------------------------------------------|
|-----------------------------------------------|
|-----------------------------------------------|
|-5"----7"----3"-------5"----7"-----------------|
|----4"----6"----2"-------4"----6"-2"-4h5-1"----|

|-----------------------------------------------|
|-----------------------------------------------|
|-----------------------------------------------|
|------------<2>---------<1>--------------6"----|
|-3-------------3-----------2-------------4"--3-|
|---4-5-2-1-------4-5-4-3-----3-4-3-2-3-2-4"--3-|
  _______       _________   _____   _____     _

|-----------------------------------------------
|-----------------------------------------------
|-----------------------------------------------
|-----------------------------------------------
|-5"----7"----3"-------5"----7"-----------------
|----4"----6"----2"-------4"----6"-2"-4h5-1"----

 ---------------------------------------------
 ---------------------------------------------
 ---------------------------------------------
 -5"----7"----3"-------5"----7"---------------
 ----4"----6"----2"-------4"----6"------------
 ----------------------------------2"-4h5-1"--

(Gtr 1)
 -----------------------------------------|
 -----------------------------------------|
 -----------------------------------------|
 -5"----7"----3"-------5"----7"-----------|
 ----4"----6"----2"-------4"----6"--------|
 ----------------------------------2"-4h5-|

(Gtr 2)
 -----------------------------------------|
 -----------------------------------------|
 -5"----7"----3"-------5"----7"-----------|
 -----------------------------------------|
 ----4"----6"----2"-------4"----6"--------|
 ----------------------------------2"-4h5-|

(Gtr 1 & 2)
|-------------------------------|
|-------------------------------|
|-------------------------------|
|---------------------5---6---5-|
|-------------------------------|
|-1"----0"----1"----3---4---3---| 2x
                    _   _   ___


(Gtr 1)
|------------------------------------------------11-10--9-8-
|-----------------------11-10-9-8----12-11-10--9------------
|---------------------------------11------------------------
|------------12-11-10-9-------------------------------------
|------12-11------------------------------------------------
|-10-9------------------------------------------------------

(Gtr 2)
|------------------------------------------------------------
|---------------------------------11-10--9--8-------11-10-9--
|-----------------------11-10-9-8----------------------------
|-------------8--7--6-5--------------------------------------
|--8-7--6--5----------------------------------10--9----------
|------------------------------------------------------------

(Gtr 1)
 --------------------------------------------------11-10-9-8-
 -----------------------11-10--9---8----12-11-10-9-----------
 ------------------------------------11----------------------
 ------------12-11-10-9--------------------------------------
 ------12-11-------------------------------------------------
 -10-9-------------------------------------------------------

(Gtr 2)
 ---------------------------------------------9-8--7--6------
 -----------------10-9--8--7-11--10--9--8--------------------
 ------7--6--8--7-------------------------11-----------------
 -7-6---------------------------------------------------7-6--
 ------------------------------------------------------------
 ------------------------------------------------------------

(Gtr 1)
 ------------------------------------------------10--9-10----|
 ------------------------11-10--9-10-12-11-10-11-------------|
 ------------------------------------------------------------|
 ------------12-11-10--9-------------------------------------|
 ------12-11-------------------------------------------------|
 -10-9-------------------------------------------------------|

(Gtr 2)
 -----------------------------------------------11-10-11-----|
 --------------12-11-10--9----12-11-10----12-11--------------|
 ---------8--7-------------11----------11--------------------|
 -8-7--7-----------------------------------------------------|
 ------------------------------------------------------------|
 ------------------------------------------------------------|

(Gtr 1)
|-15-------------------------|
|----15-12----10--7----10----|
|----------12--------8-------|
|----------------------------|
|----------------------------|
|----------------------------|

(Gtr 2)
|------------17~~------------|
|-15~~-----------------12----|
|-----12h13------12h13-------|
|----------------------------|
|----------------------------|
|----------------------------|


                                        (Gtr 1)          (Gtr 2)
|---------------------------------|     |--------------| |--------------|
|---------------------------------|     |--------------| |--------------|
|---------------------------------|     |--------------| |----/8--------|
|-3---2---4---3---5---4---6---5---|     |-3--/8--------| |-3------------|
|-3---2---4---3---5---4---6---5---|     |-3------------| |-3------------|
|-1---0---2---1---3---2---4---3---| 5x  |-1------------| |-1------------|

(Gtr 1 & 2)
|---------------------------------|
|---------------------------------|
|---------------------------------|
|-3-3-2-2-4-4-3-3-5-5-4-4-6-6-5-5-|
|-3-3-2-2-4-4-3-3-5-5-4-4-6-6-5-5-|
|-1-1-0-0-2-2-1-1-3-3-2-2-4-4-3-3-| 3x
  _______________________________

|---------------------------------|
|---------------------------------|
|---------------------------------|
|-3-3-2-2-4-4-3-3-5-5-4-4-6-6-5-5-|
|-3-3-2-2-4-4-3-3-5-5-4-4-6-6-5-5-|
|-1-1-0-0-2-2-1-1-3-3-2-2-4-4-3-3-|
  _______

|-----------------------------------------|
|-----------------------------------------|
|-----------------------------------------|
|-3----2----4----3----5----4----6----5----|
|-3----2----2----3----3----4----4----5----|
|-1----0----2----1----3----2----4----3----|

(Gtr 1)
|-----------------------------------------|
|-----------------------------------------|
|-----------------------------------------|
|-3----2----4----3----5----4----6----5----|
|-3----2----2----3----3----4----4----3----|
|-1----0----2----1----3----2----4----3----|

(Gtr 2)
|-----------------------------------------|
|-----------------------------------------|
|-----------------------------------------|
|-3----2-----4----3----5----4----6----5---|
|-x----x----------------------------------|
|-1----0----2----1----3----2----4----3----|

(Gtr 1)
|-------------------------------------------|
|-------------------------------------------|
|-------------------------------------------|
|-4----3----4----3----4----3----4----3------|
|-2----3----2----3----2----3----2----3------|
|-2----1----2----1----2----1----2----1------|

(Gtr 2)
|-------------------------------------------|
|-------------------------------------------|
|-------------------------------------------|
|--4---3-----4----3----4---3-----4---3------|
|-2----x----2---------2----x----2----x------|
|------1---------1---------1---------1------|

(Gtr 1)
|-----------------------------------------------|
|-----------------------------------------------|
|-----------------------------------------------|
|-4----3----4----3----4----3----4------4--------|
|-2----3----2----3----2----3----2------4--------|
|-2----1----2----1----2----1----2------2--------|

(Gtr 2)
|-----------------------------------------------|
|-----------------------------------------------|
|-----------------------------------------------|
|--4---3-----4---3-----4---3-----4-----4--------|
|-2----x----2----x----2----x----2------4--------|
|------1---------1---------1-----------2--------|


(Gtr 1)
|-----------------------------------------------------------------|
|-----------------------------------------------------------------|
|-----------------------------------------------------------------|
|-----------------------------------------------------------------|
|-0000-3000-3030-4444-0000-3000-205424-0000-3000-3020-1111-0000-3-|
|-----------------------------------------------------------------|

(Gtr 2)
|-----------------------------------------------------------------|
|-----------------------------------------------------------------|
|-----------------------------------------------------------------|
|--------------------------------------2----5---------33---2----5-|
|-------------------------------205424-0----3---------11---0----3-|
|-----------------------------------------------------------------|
                                ______

|-------------------------------------------------
|-------------------------------------------------
|-------------------------------------------------
|-------------------------------------------------
|-0000-3000-3030-4444-0000-3000-3p0-4p0-4h5p4-2h4-
|-------------------------------------------------

 -------------------------------------------------
 -------------------------------------------------
 -------------------------------------------------
 -------------------------------------------------
 -0000-3000-3020-1111-0000-3000-3p0-4p0-4h5p4-2h4-
 -------------------------------------------------

 ----------------------------------------------|
 ----------------------------------------------|
 ----------------------------------------------|
 ----------------6666--------------------------|
 -0000-3000-3030-4444-0000-3000-3020-4h5p4-2h4-|
 ----------------------------------------------|

(Gtr 1)
|-----------------------------|
|-----------------------------|
|-----------------------------|
|-----------------------------|
|---------4444---------3p0-44-|
|-4h6-3\1------4h6-3\1--------|

(Gtr 2)
|-----------------------------|
|-----------------------------|
|-----------------------------|
|----------------------5---66-|
|-4h6-3\1-4444-4h6-3\1-3---44-|
|-----------------------------| 2x


(Gtr 1 & 2)
|-------------------------------------------------
|-------------------------------------------------
|-------------------------------------------------
|-------------------------------------------------
|-0000-3000-3030-4444-0000-3000-3p0-4p0-4h5p4-2h4-
|-------------------------------------------------

 -------------------------------------------------|
 -------------------------------------------------|
 -------------------------------------------------|
 -------------------------------------------------|
 -0000-3000-3020-1111-0000-3000-3p0-4p0-4h5p4-2h4-|
 -------------------------------------------------|


|------------------------------------------------------------------
|------------------------------------------------------------------
|------------------------------------------------------------------
|---------------------------------------------5"----7"----3"-------
|-5"----7"----3"-------5"----7"------------------4"----6"----2"----
|----4"----6"----2"-------4"----6"-2"-4h5-1"-----------------------

 -------------------------------------------------------------------|
 -------------------------------------------------------------------|
 -------------------------------------------------------------------|
 -5"----7"-----------5"----7"----3"-------5"----7"------------------|
 ----4"----6"-----------4"----6"----2"-------4"----6"---------------|
 -------------2"-4h5----------------------------------2"-4h5-1"-----|


|-----------------------------------------|
|-----------------------------------------|
|-----------------------------------------|
|------------<2>---------<1>--------------|
|-3-------------3-----------2-------------|
|---4-5-2-1-------4-5-4-3-----3-4-3-2-3-2-| 2x
    _____       _________   _____   _____

|---------------------------------------------------|
|---------------------------------------------------|
|---------------------------------------------------|
|------------<2>---------<1>------------------------|
|-3-------------3-----------2-------------3---------|
|---4-5-2-1-------4-5-4-3-----3-4-3-2-3-2---4-5-2-1-|
    _____       _________   _____   _____   _____


|-----------------------------|
|-----------------------------|
|-----------------------------|
|-----------------------------|
|---------4444---------3---4~-|
|-4h6-3\1------4h6-3\1--------|

|-----------------------------|
|-----------------------------|
|-----------------------------|
|-----------------------------|
|---------4444---------3p0-44-|
|-4h6-3\1------4h6-3\1--------| 5x

(Gtr 1)
|-----------------------------|     |----------------------|
|-----------------------------|     |----------------------|
|-----------------------------|     |----------------------|
|-----------------------------|     |----------------------|
|---------4444---------3p0-44-|     |---------4444---------|
|-4-6-3-1------4-6-3-1--------| 2x  |-4-6-3-1------4-6-3-1-|
  _______      _______                _______      _______

(Gtr 2)
|-----------------------------|     |----------------------|
|-----------------------------|     |----------------------|
|-----------------------------|     |----------------------|
|---------6666---------5---66-|     |---------6666---------|
|---------4444---------3---44-|     |---------4444---------|
|-4-6-3-1------4-6-3-1--------| 2x  |-4-6-3-1------4-6-3-1-|
  _______      _________              _______      _______


(Gtr 1)
|-----------------------------------------------------------------|
|-----------------------------------------------------------------|
|-----------------------------------------------------------------|
|---3-2---1---3-2-------------3-2---3-2---1---3-2---3-2---1---3-2-|
|-2-----1---1-3-2-------------3-2-2-----1---1-3-2-2-----1---1-3-2-|
|-------------1-0-------------1-0-------------1-0-------------1-0-|

(Gtr 2)
|-----------------------------------------------------------------|
|-----------------------------------------------------------------|
|-----------------------------------5-4---3--------<5-4>-<3>------|
|---------------2---3-2---1-------4-----3---3-----4----<3>-<3>----|
|---------------2-2-----1---1-------------------------------------|
|---------------0-------------1-0-------------1-0-------------1-0-|

(Gtr 1 & 2)
|----------------------------------|
|----------------------------------|
|----------------------------------|
|-9-10-9-8-8-8-------5-4-3-3-3-3-4-|
|-9--8-7-8-6-8-------3-2-3-1-3-1-2-|
|-7------6---6-1-0-------1---1-----|

(Gtr 1)
|---------------------------------------------|
|---------------------------------------------|
|---------------------------------------------|
|---<3>-<2>---1---------3-3-2-2----<1>b-------|
|-2---------1---1---------------1-1-----1-1---|
|-----------------00-0------------------1-1-0-|
            _   ____    ___________     ___

(Gtr 2)
|---------------------------------------------|
|---------------------------------------------|
|---------------------------------------------|
|----5"-4"----3"---------5"-4"----3"----------|
|-4"-------3"---------4"-------3"----3"-1"-2"-|
|----------------0000-------------------------|
                 ____

(Gtr 1)
|-------------------------------------------------
|-------------------------------------------------
|-------------------------------------------------
|----3"-2"----1"-------------3"-2"----1"----------
|-2"-------1"----1"-------2"-------1"----1"-------
|-------------------1"-0"-------------------1"-0"-

(Gtr 2)
|-------------------------------------------------
|-------------------------------------------------
|-------------------------------------------------
|----3"-2"----1"-------------3"-2"----1"----------
|-2"-------1"----1"-------2"-------1"----1"-------
|-------------------1"-0"-------------------1"-0"-

(Gtr 1)
 -------------------------------------------------|
 -------------------------------------------------|
 -------------------------------------------------|
 ----3"-2"----1"-------------3"-2"----1"----------|
 -2"-------1"----1"-------2"-------1"----1"-------|
 -------------------1"-0"-------------------1"-0"-|

(Gtr 2)
 -------------------------------------------------|
 -------------------------------------------------|
 ----------------------------5"-4"----3"----------|
 ----3"-2"----1"-------------------3"----3"-------|
 -2"-------1"----1"-------2"----------------------|
 -------------------1"-0"-------------------1"-0"-|

(Gtr 1 & 2)
|--------------------------------------------------------|
|--------------------------------------------------------|
|--------------------------------------------------------|
|----3"-2"----1"-------------3"-2"----1"-----------4h6h7-|
|-2"-------1"----1"-------2"-------1"----1"--4h6h7-------|
|-------------------1"-0"--------------------------------|
  ______________________________________________________

|-----------------------------------------------|
|-----------------------------------------------|
|-----------------------------------------------|
|------------<2>---------<1>--------------6-6-5-|
|-3-------------3-----------2-------------4-4-5-|
|---4-5-2-1-------4-5-4-3-----3-4-3-2-3-2-4-4-3-|
  _______       _________   _____   _____

  Visit MetalTabs.com for more metal tablature

bottom separator

Contact Us | Privacy Policy | Disclaimer | Legal Notice
Copyright © 2001-2014 MetalTabs.com. All Rights Reserved.