top separator

Home

Forum

What's New

Submit a Tab

FAQ

Links

Contact Us

Link to Us

MetalTabs.com logo

Bands

0-9

A

B

C

D

E

F

G

H

I

J

K

L

M

N

O

P

Q

R

S

T

U

V

W

X

Y

Z

Search

What

Where
 

Dying Fetus - "Justifiable Homicide" Guitar Tab

Plain Text Version
More Dying Fetus Tabs

Hits: 5718
Rated: 4.00 out of 5 (3 votes)
Updated: 2003-08-11 13:40:17

 

By:

shredder

sendpm.gif

email.gif

Important note
This tab is available online because we obtained explicit permission from Dying Fetus or their label.


#----------------------------------PLEASE NOTE---------------------------------#
#This file is the author's own work and represents their interpretation of the #
#song. You may only use this file for private study, scholarship, or research. #
#Unless specified otherwise, this is NOT an official tab from the band members.#
#------------------------------------------------------------------------------#

  Visit MetalTabs.com for more metal tablature
  
Band: 	Dying Fetus
Album:	Destroy The Opposition
Song:	Justifiable Homicide
Copyright  Relapse Records 2000
Version 1.0 - July 31, 2003

Transcribed By:	Joe Holly
E-mail:		rivers_of_gore666@yahoo.com

.  - palm mute           /  - slide up to
\  - slide down to       ~  - vibrato
h  - hammer on           b  - Bend
p  - pull off            Suffixes for bend
t  - tap                 f  - full bend    h - half bend
ph - pinched harmonic    q  - quarter bend t - tap bend
*  - see comment         ^  - Hold bend    r release bend
x  - Stuccatto           ~  - vibrato bend
,  - slight palm mute    () - ghost note, sustained note
"  - tremolo note        <> - Trill

Tuning: C# G# E B F# C#

Riff 1
|-----------------------------------------------------|
|-----------------------------------------------------|
|-----------------------------------------------------|
|--------------------------------------------5--------|
|-5-------------4----------------------3--------------|
|-3---0-0-0--0--2---0-0-0--0--2--2--2-----2-----2--3~-|
      . . .  .      . . .  .  .  .  .  .  .

|------------------------------------------------20-----\\-|
|----------------------------------------------19--19---\\-|
|-----------------------------------------19h20------19-\\-|
|---------------------------------------17-----------------|
|-5-------------4---------------------17-------------------|
|-3---0-0-0--0--2---0-0-0--0--15h17-17---------------------|
      . . .  .      . . .  .

Riff 2A
|---------------------------------------------|
|---------------------------------------------|
|---------------------------------------------|
|---------------------------------------------|
|-5\4--2--2--7/8--2--2--5\4--2--2--4\3--2--2--|
|-3\2--0--0--5/6--0--0--3\2--0--0--2\1--0--0--|
       .  .       .  .       .  .       .  .

|---------------------------------------------------|
|---------------------------------------------------|
|---------------------------------------------------|
|------------------------------2-2-2--2-2-2--2-2-2--|
|-5\4--------7/8---------------0-0-0--0-0-0--0-0-0--|
|-3\2--0--0--5/6--0--0--2-2-2-----------------------|
       .  .       .  .  . . .  . . .  . . .  . . .

Riff 2B
|---------------------------------------------|
|---------------------------------------------|
|---------------------------------------------|
|---------------------------------------------|
|-5\4--------7/8--------5\4--------4\3--------|
|-3\2--0--0--5/6--0--0--3\2--0--0--2\1--0--0--|
       .  .       .  .       .  .       .  .

|----------------------------------------------------|
|----------------------------------------------------|
|----------------------------------------------------|
|------------------------------7------6--------------|
|-5/4--------7/8--------5------5------4--------------|
|-3/2--0--0--5/6--0--0--3--------------------5ph~----|
       .  .       .  .

Riff 1
Riff 2A
Riff 2B

Riff 3A
|-------------------------------------|
|-------------------------------------|
|-------------------------------------|
|-------------------------------------|
|-2---3-2-----------7---7---6---3-4-3-|
|-0---1-0-3ph-b---0-5---5---4---1-2-1-|
      . .         .             . . .

Riff 3B
|-----------------------------------------|
|-----------------------------------------|
|-----------------------------------------|
|-----------------------------------------|
|-6-5-5-----7-6-6-----6-5-5-----7-6-6-----|
|-------8-7-------8-7-------8-7-------8-7-|
  . . . . . . . . . . . . . . . . . . . .

Riff 3A
Riff 3B
Riff 3A
Riff 3B

Riff 4A
|---------------------------------------------------------|
|---------------------------------------------------------|
|---------------------------------------------------------|
|-----------------5"------------------------------4h5-----|
|-3"--------------------------------------------------4~--|
|---------2"--------------2"------3"-----2"---------------|

|---------------------------------------------------------|
|---------------------------------------------------------|
|---------------------------------------------------------|
|---------------------------------------------------------|
|---------2"--------------3"------2"------0"------2"------|
|-0"--------------0"--------------------------------------|

Riff 4B (only played by guitar 2)
|------------------------------------------------------------------------|
|------------------------------------------------------------------------|
|---------------------12"-------------------------------------11h12------|
|-10"---------------------------------------------------------------11~--|
|-------------9"------------------9"-------10"--------9"-----------------|
|------------------------------------------------------------------------|


|-------------------------------------------------------------|
|-------------------------------------------------------------|
|-------------------------------------------------------------|
|---------9"--------------10"---------9"------7"------9"------|
|-------------------------------------------------------------|
|-0"--------------0"------------------------------------------|

Riff 4C
|------------------------------------------|
|------------------------------------------|
|------------------------------------------|
|------------------------------------------|
|---------2"--------------3--2--0--2ph-b---|
|-0"--------------0"-----------------------|

Riff 5A
|-----------------------------------------------|
|-----------------------------------------------|
|-----------------------------------------------|
|-----------------------------------------------|
|-4-4-4-4-4-4-4-5-4------4-4-4-4------5--4--5---|
|-2-2-2-2-2-2-2-3-2------2-2-2-2------3--2--3---|
  . . . . . . .          . . . .      .  .

|------------------------------------------------|
|------------------------------------------------|
|------------------------------------------------|
|------------------------------------------------|
|-4-4-4-4-4-4-4-5-4------8--7--6--7--6--5--6--4--|
|-2-2-2-2-2-2-2-3-2------6--5--4--5--4--3--4--2--|
  . . . . . . .          .  .  .  .  .  .  .  .

|-----------------------------------------------|
|-----------------------------------------------|
|-----------------------------------------------|
|-----------------------------------------------|
|-4-4-4-4-4-4-4-5-4------4-4-4-4------5--4--5---|
|-2-2-2-2-2-2-2-3-2------2-2-2-2------3--2--3---|
  . . . . . . .          . . . .      .  .

|------------------------------------------------|
|------------------------------------------------|
|------------------------------------------------|
|------------------------------------------------|
|-4-4-4-4-4-4-4-5-4------2-----4-----5-----4-----|
|-2-2-2-2-2-2-2-3-2------0-----2-----3-----2-----|
  . . . . . . .

Riff 5B
|----------------------------------------------------|
|----------------------------------------------------|
|----------------------------------------------------|
|----------------------------------------------------|
|-4-4-4--4--4--5--4-4--4--4--4-4-4--4--4--5--4--5/7--|
|-2-2-2--2--2--3--2-2--2--2--2-2-2--2--2--3--2--3/5--|
  . . .  .  .     . .  .  .  . . .  .  .     .

|----------------------------------------------------|
|----------------------------------------------------|
|----------------------------------------------------|
|----------------------------------------------------|
|-4-4-4--4--4--5--4-4--4--4--8--7--6--7--6--5--6--4--|
|-2-2-2--2--2--3--2-2--2--2--6--5--4--5--4--3--4--2--|
  . . .  .  .     . .  .  .  .  .  .  .  .  .  .  .

|----------------------------------------------------|
|----------------------------------------------------|
|----------------------------------------------------|
|----------------------------------------------------|
|-4-4-4--4--4--5--4-4--4--4--4-4-4--4--4--5--4--5/7--|
|-2-2-2--2--2--3--2-2--2--2--2-2-2--2--2--3--2--3/5--|
  . . .  .  .     . .  .  .  . . .  .  .     .

|---------------------------------------------------|
|---------------------------------------------------|
|---------------------------------------------------|
|---------------------------------------------------|
|-4-4-4--4--4--5-4-4--4--4--2-----4-----5-----4-----|
|-2-2-2--2--2--3-2-2--2--2--0-----2-----3-----2-----|
  . . .  .  .    . .  .  .

Riff 5A
Riff 5B

Riff 6
|--------------------------------------------------------------|
|--------------------------------------------------------------|
|--------------------------------------------------------------|
|------------------------------------------------------5-------|
|-2*---------------------------------------------------3---3---|
|-0*-------------------------------------------------------1---|
                                                       .   .

       * = let ring

Riff 7A
|----------------------------------------------|
|----------------------------------------------|
|----------------------------------------------|
|--------7--7----------------------5-----------|
|-2---5--5--5--5--3--2----3--2--3--3--3--2--3--|
|-0---3--------3--1--0----1--0--1-----1--0--1--|
      .  .  .  .  .       .  .  .  .  .  .  .

|------------------------------------------|
|------------------------------------------|
|------------------------------------------|
|-----------7----------------------5-------|
|-2---5--2--5--5--3--2----3--2--3--3---3---|
|-0---3--0-----3--1--0----1--0--1------1---|
      .  .  .  .  .       .  .  .  .   .

|----------------------------------------------|
|----------------------------------------------|
|----------------------------------------------|
|-----------7----------------------5-----------|
|-2---5--2--5--5--3--2----3--2--3--3--3--2--3--|
|-0---3--0-----3--1--0----1--0--1-----1--0--1--|
      .  .  .  .  .       .  .  .  .  .  .  .

|----------------------------------------------|
|----------------------------------------------|
|----------------------------------------------|
|-----------7----------------------------------|
|-2---5--2--5--5--3--2----3--2--3--4--4--4--4--|
|-0---3--0-----3--1--0----1--0--1--2--2--2--2--|
      .  .  .  .  .       .  .  .  .  .  .  .

Riff 7B
|----------------------------------------------|
|----------------------------------------------|
|----------------------------------------------|
|--------7--7----------------------5-----------|
|-2---5--5--5--5--3--2----3--2--3--3--3--2--3--|
|-0---3--------3--1--0----1--0--1-----1--0--1--|

|------------------------------------------|
|------------------------------------------|
|------------------------------------------|
|-----------7----------------------5-------|
|-2---5--2--5--5--3--2----3--2--3--3---3---|
|-0---3--0-----3--1--0----1--0--1------1---|
                                   .   .

Riff 1
Riff 2A
Riff 2B

Riff 8
|-------------------------------------------|
|-------------------------------------------|
|-------------------------------------------|
|-------------------------------------------|
|-2-2-2--2--2--3---2--2--8\7----4-----4/5---|
|-0-0-0--0--0--1---0--0--6\5--0-2---0-2/3---|
  . . .  .  .      .  .       .     .

Riff 9A
|---------------------------------|
|---------------------------------|
|---------------------------------|
|---------------------------------|
|-2---4-2-4-5---8---2-4-2-4-5-4-2-|
|-0---2-0-2-3-0-6---0-2-0-2-3-2-0-|
      . . . . .     . . . . . . .

Riff 9B
|------------------------------------|
|------------------------------------|
|------------------------------------|
|------------------------------------|
|-2---4-2-4-5---8---2-4-2-4-5--------|
|-0---2-0-2-3-0-6---0-2-0-2-3-3ph~---|
      . . . . .     . . . . .

Riff 9A
Riff 8

Riff 10A
|---------------------------------|
|---------------------------------|
|---------------------------------|
|---------------------------------|
|-2---2---4/5---8---2-4-2-4-5-4-2-|
|-0---0---2/3-0-6---0-2-0-2-3-2-0-|
  .   .       .     . . . . . . .

Riff 10B
|------------------------------------|
|------------------------------------|
|------------------------------------|
|------------------------------------|
|-2---2---4/5---8---2-4-2-4-5--------|
|-0---0---2/3-0-6---0-2-0-2-3-3ph~---|
  .   .       .     . . . . .

Riff 10A
Riff 8
Riff 10A

Riff 10C
|------------------------------------|
|------------------------------------|
|-----------------------------5ph~---|
|------------------------------------|
|-2---2---4/5---8---2-4-2-4-5--------|
|-0---0---2/3-0-6---0-2-0-2-3--------|
  .   .       .     . . . . .

Riff 10A
Riff 8

Ending
|----------------------------------------------------------------|
|----------------------------------------------------------------|
|----------------------------------------------------------------|
|----------------------------------------------------------------|
|-2*-------------------------------------------------------------|
|-0*-------------------------------------------------------------|

       * = let ring

  Visit MetalTabs.com for more metal tablature

bottom separator

Contact Us | Privacy Policy | Disclaimer | Legal Notice
Copyright © 2001-2014 MetalTabs.com. All Rights Reserved.