top separator

Home

Forum

What's New

Submit a Tab

FAQ

Links

Contact Us

Link to Us

MetalTabs.com logo

Bands

0-9

A

B

C

D

E

F

G

H

I

J

K

L

M

N

O

P

Q

R

S

T

U

V

W

X

Y

Z

Search

What

Where
 

Dying Fetus - "Tearing Inside The Womb" Guitar Tab

Plain Text Version
More Dying Fetus Tabs

Hits: 4588
Rated: 2.40 out of 5 (5 votes)
Updated: 2003-08-11 13:39:31

 

By:

shredder

sendpm.gif

email.gif

Important note
This tab is available online because we obtained explicit permission from Dying Fetus or their label.


#----------------------------------PLEASE NOTE---------------------------------#
#This file is the author's own work and represents their interpretation of the #
#song. You may only use this file for private study, scholarship, or research. #
#Unless specified otherwise, this is NOT an official tab from the band members.#
#------------------------------------------------------------------------------#

  Visit MetalTabs.com for more metal tablature
  
Band: 	Dying Fetus
Album:	Grotesque Impalement
Song:	Tearing Inside The Womb

Copyright  Blunt Force Records 2000
Version 1.0 - July 16, 2003

Transcribed By:	Joe Holly
E-mail:		rivers_of_gore666@yahoo.com

.  - palm mute           /  - slide up to
\  - slide down to       ~  - vibrato
h  - hammer on           b  - Bend
p  - pull off            Suffixes for bend
t  - tap                 f  - full bend    h - half bend
ph - pinched harmonic    q  - quarter bend t - tap bend
*  - see comment         ^  - Hold bend    r release bend
x  - Stuccatto           ~  - vibrato bend
,  - slight palm mute    () - ghost note, sustained note
"  - tremolo note        <> - Trill

Tuning: C# G# E B F# C#

Riff 1
|-----------------------|
|-----------------------|
|-----------------------|
|-8----------7----------|
|-6----------5----------|
|-----------------------|

|------------------------------------|
|------------------------------------|
|------------------------------------|
|----------------------------------4-|
|-2--------3--2--------------3--2--2-|
|-0--0-0-0-1--0--0--0--0-0-0-1--0----|
     . . .       .  .  . . .

Riff 2
|-------------------------------------|
|-------------------------------------|
|-------------------------------------|
|----------------------------------4--|
|-2--------3--2--------------3--2--2--|
|-0--0-0-0-1--0--0--0--0-0-0-1--0-----|
     . . .       .  .  . . .

Riff 1

Riff 3A
|-------------------------|
|-------------------------|
|-------------------------|
|-------------------7"----|
|-------4"----5"----------|
|-0"----------------------|

|-----------------------------------------------------------------|
|-----------------------------------------------------------------|
|-----------------------------------------------------------------|
|-------------------7"--------------------------------------------|
|-------4"----5"----------2------2--2------2-2-2-2---2---2--2--2--|
|-0"----------------------0------0--0------0-0-0-0---0---0--0--0--|
                                 .  .      . . . .   .   .  .  .

Riff 3B
|-------------------------|
|-------------------------|
|-------------------------|
|-------------------7"----|
|-------4"----5"----------|
|-0"----------------------|

|-----------------------------------------------------------------|
|-----------------------------------------------------------------|
|-----------------------------------------------------------------|
|-------------------7"--------------------------------------------|
|-------4"----5"----------2---------------------------------------|
|-0"----------------------0---------------------------------------|

Riff 4
|-----------------------|
|-----------------------|
|-----------------------|
|-----------------------|
|-2---/-7h8p7h8p7h8p7h8-|
|-0---------------------|

|-----------------------|
|-----------------------|
|-----------------------|
|-----------------------|
|-2---/-7h8p7h8p7h8p7h8-|
|-0---------------------|

|-----------------------|
|-----------------------|
|-----------------------|
|-----------------------|
|-2---/-7h8p7h8p7h8p7h8-|
|-0---------------------|

|-----------------|
|-----------------|
|-----------------|
|-8-----------9---|
|-6-9-2-9-8-2-7---|
|---7-0-7-6-0-----|
  . . . . . .

Riff 5A
|--------------------------------------------------------------|
|--------------------------------------------------------------|
|--------------------------------------------------------------|
|--------------------------------------------------------------|
|-------2"---1"---8"---7"---2"---1"---2"---4------5--3------5--|
|-0"---------------------------------------2------3--1------3--|

Riff 5B
|-----------------------|
|-----------------------|
|-----------------------|
|-----------------------|
|--------2"---------1"--|
|-2"---------1"---------|

Riff 6
|--------------------------------------------------------|
|--------------------------------------------------------|
|--------------------------------------------------------|
|----------4------------------------------------3--------|
|-2--------2--------3--------4/5--4/5--2--------1--------|
|-0----0-0------0-0-1----0-0-2/3--2/3--0----0-0------0-0-|
       . .      . .      . .                . .      . .

|----------------|
|----------------|
|----------------|
|----------------|
|-3-3--6-5--4-2--|
|-1-1--4-3--2-0--|

Riff 7
|-----------------------------------|
|-----------------------------------|
|-----------------------------------|
|---------------------------5-4-2-4-|
|-2--------5-4-2-4-2--------3-2-0-2-|
|-0----0-0-3-2-0-2-0----0-0---------|
       . . . . . .      . . . . . .

ending 1
|----------------------------------|
|----------------------------------|
|----------------------------------|
|----------------------------------|
|-2--------5-4-2-4-3-3-3-3-3-3-5-4-|
|-0----0-0-3-2-0-2-1-1-1-1-1-1-3-2-|
       . . . . . . . . . . . . . .

ending 2
|------------------------------|
|------------------------------|
|------------------------------|
|------------------------------|
|-2--------5-4-2-4-3-3--5-4--4-|
|-0----0-0-3-2-0-2-1-1--4-3--2-|
       . . . . . .

Riff 8
|-------------------|
|-------------------|
|-------------------|
|-------------------|
|-2--------5/6-3----|
|-0----0-0-3/4-1----|
       . .

|-------------------|
|-------------------|
|-------------------|
|-------------------|
|-2--------5/6-3----|
|-0----0-0-3/4-1----|
       . .
|-------------------------------------|
|-------------------------------------|
|-------------------------------------|
|-------------------------------------|
|-2--------5/6-3----3-4-3----2-3-2----|
|-0----0-0-3/4-1----------------------|
       . .

Riff 9
|-----------------------------------------|
|-----------------------------------------|
|-----------------------------------------|
|-----------------------------------------|
|------7----------------------------------|
|-0---------8----7----4----5----1----2~~~-|

ending 1
|---------------------------------------|
|---------------------------------------|
|---------------------------------------|
|---------------------------------------|
|------7--------------6--------7--------|
|-0---------8----7----4--------5--------|

ending 2
|-----------------------------------------|
|-----------------------------------------|
|-----------------------------------------|
|-----------------------------------------|
|------7--------------6---6-6---6-7-7-7-7-|
|-0---------8----7----4---4-4---4-5-5-5-5-|

Riff 10
|-------------------------------------------------|
|-------------------------------------------------|
|-------------------------------------------------|
|-------------------------------------------------|
|-------7"----------------------------------------|
|-0"----------8"----7"----4"----5"----1"----2"----|

ending 1
|---------------------------------------------|
|---------------------------------------------|
|---------------------------------------------|
|---------------------------------------------|
|-------7"------------------------------------|
|-0"----------8"----7"----4"--------5"--------|

ending 2:
|-------------------------------------|
|-------------------------------------|
|-------------------------------------|
|-------------------------------------|
|-------7"----------------6--6--7--7--|
|-0"----------8"----7"----4--4--5--5--|


riff 10
|-----------------------------------------|
|-----------------------------------------|
|-----------------------------------------|
|------9----------------------------------|
|-2----7---10----9----6----7----3----4----|
|-0---------8----7----4----5----1----2----|


|---------------------------------------|
|---------------------------------------|
|---------------------------------------|
|------9--------------------------------|
|-2----7---10----9----6--------7--------|
|-0---------8----7----4--------5--------|

Riff 11
|---------------------------------------------------------------|
|---------------------------------------------------------------|
|---------------------------------------------------------------|
|---------------------------------------------------------------|
|-2-------------2-------------2---------------------------------|
|-0----0-0-0----0----0-0-0----0----0-0-0----3"--------4"--------|
       . . .         . . .         . . .

Riff 12
|---------------------------------------------------|
|---------------------------------------------------|
|---------------------------------------------------|
|---------------------------------------------------|
|-2------------------------2------------------------|
|-0----3"--------4"--------0----3"--------4"--------|

|-----------------------------------------------|
|-----------------------------------------------|
|-----------------------------------------------|
|-----------------------------------------------|
|-2------------------------5---5-5---5-6-6-6-6--|
|-0----3"--------4"--------3---3-3---3-4-4-4-4--|

riff 11

ending
|--------------------------------------------------------|
|--------------------------------------------------------|
|--------------------------------------------------------|
|--------------------------------------------------------|
|-2-------------2-------------2-----------------------6--|
|-0----0-0-0----0----0-0-0----0----0-0-0----3"--------4--|
       . . .         . . .         . . .

  Visit MetalTabs.com for more metal tablature

bottom separator

Contact Us | Privacy Policy | Disclaimer | Legal Notice
Copyright © 2001-2014 MetalTabs.com. All Rights Reserved.