top separator

Home

Forum

What's New

Submit a Tab

FAQ

Links

Contact Us

Link to Us

MetalTabs.com logo

Bands

0-9

A

B

C

D

E

F

G

H

I

J

K

L

M

N

O

P

Q

R

S

T

U

V

W

X

Y

Z

Search

What

Where
 

Lake of Tears - "Lady Rosenred" Guitar Tab

Plain Text Version
More Lake of Tears Tabs

Hits: 4261
Updated: 2001-07-02 16:16:40

 

Important note
This tab is available online because we obtained explicit permission from Lake of Tears or their label.


#----------------------------------PLEASE NOTE---------------------------------#
#This file is the author's own work and represents their interpretation of the #
#song. You may only use this file for private study, scholarship, or research. #
#Unless specified otherwise, this is NOT an official tab from the band members.#
#------------------------------------------------------------------------------#

  Visit MetalTabs.com for more metal tablature
  
Taken with permission from The Crimson Book - http://www.lakeoftears.net

Lake Of Tears - Lady Rosenred (Crimson Cosmos)
By Kovács Zoltán (kovacs113@freemail.hu)
Please send me any corrections!



bass bridge
G|--------|
D|0000----|
A|----30--|
E|------31|
 {DDDDCAGF}

solo:                        G|---------|
Bass                  Bass   D|-----3-5-|
Measure               Notes  A|-5-3-----|
Timing                       E|---------|
Note                            D C F G


  D  D    C  C    C  C    D  D
  1   2   3   4   5   6   7   8
  12341234123412341234123412341234
e|--------------------------------|
B|3-3331--------------------------|
G|------42------------------------|
D|-----------0-0--3-3320-2---0----|
A|--------------3-------3---------|
E|--------------------------------|
  d dddcba   D DC F FFEDCE   D


  F  F  FGC  C    D  D    D  D
  1   2   3   4   5   6   7   8
  12341234123412341234123412341234
e|--------------------------------|
B|1-----------------------------3-|
G|------2-0--------p-----2----2---|
D|--3-3---------3-20-0----0-2-----|
A|----------3-3-------------------|
E|--------------------------------|
                   p
  c F F A G C C F ED D   AD E A d

  D  D    C  C    C  C    D  D
  1   2   3   4   5   6   7   8
  12341234123412341234123412341234
e|--------------------------------|
B|------3-------3-------3-------3-|
G|----2-------2-------2-------2---|
D|2-0-----2-0-----2-0-----2-0-----|      ??????????
A|--------------------------------|
E|--------------------------------|
  E D A d E D A d E D A d E D A d

  F  F  FGC  C    D  D    D  D
  1   2   3   4   5   6   7   8
  12341234123412341234123412341234
e|--------------------------------|
B|--------------------------------|
G|--------------------------------|
D|--------------------------------|      ??????????
A|--------------------------------|
E|--------------------------------|
  DEADEADEcccBA GF
bass bridge

and the Refrain...

  Visit MetalTabs.com for more metal tablature

bottom separator

Contact Us | Privacy Policy | Disclaimer | Legal Notice
Copyright © 2001-2014 MetalTabs.com. All Rights Reserved.