top separator

Home

Forum

What's New

Submit a Tab

FAQ

Links

Contact Us

Link to Us

MuSpy.com

MetalTabs.com logo

Bands

0-9

A

B

C

D

E

F

G

H

I

J

K

L

M

N

O

P

Q

R

S

T

U

V

W

X

Y

Z

Search

What

Where
 

Ensiferum - "Eternal Wait" Guitar Tab

Plain Text Version
More Ensiferum Tabs

Hits: 25048
Rated: 4.08 out of 5 (12 votes)
Updated: 2003-10-26 13:31:55

 

By:

Darkenelf

sendpm.gif

email.gif

Important note
This tab is available online because we obtained explicit permission from Ensiferum or their label.


#----------------------------------PLEASE NOTE---------------------------------#
#This file is the author's own work and represents their interpretation of the #
#song. You may only use this file for private study, scholarship, or research. #
#Unless specified otherwise, this is NOT an official tab from the band members.#
#------------------------------------------------------------------------------#

  Visit MetalTabs.com for more metal tablature
  
Band: Ensiferum
Album: Ensiferum
Song: Eternal Wait
Tabbed by: Martijn Wietsma (Darkenelf)
Tab Date: 25-07-2003
Email: dalvanian@yahoo.com
Version 2.0

For more tabs from me,
goto: http://www.doomish.com/go/?r=Darkenelf


Standard E Tuning

riff A (acoustic)
|--------------------------------------------------------------------|
|-----------------4--------------------------------------------------|
|-5----5------3-----------7----8-7--5-4h5----------------------------|
|-5--5------1---1-------7--------------------------------------------|
|-3-------------------5----------------------------------------------|
|--------------------------------------------------------------------|
(3x)
|--------------------------------------------------------------------|
|-----------------4--------------------------------------------------|
|-5----5------3-----------7--5---------------------------------------|
|-5--5------1---1-------7--------------------------------------------|
|-3-------------------5----------------------------------------------|
|--------------------------------------------------------------------|
(1x)
riff B (0:19) (acoustic)
|--------------------------------------------------------------------|
|--------------------------------------------------------------------|
|-------------0------------------------------------------------------|
|-------0h1h3---1-1--0---0--1p0h-------------------------------------|
|-3p2h3----------------1---------3-2---------------------------------|
|--------------------------------------------------------------------|

|--------------------------------------------------------------------|
|--------------------------------------------------------------------|
|-------------0------------------------------------------------------|
|-------0h1h3---1-1--0---0--1-3-0------------------------------------|
|-3p2h3----------------1---------------------------------------------|
|--------------------------------------------------------------------|

|--------------------------------------------------------------------|
|--------------------------------------------------------------------|
|-------------0------------------------------------------------------|
|-------0h1h3---1-1--0---0--1p0h-------------------------------------|
|-3p2h3----------------1---------3-2---------------------------------|
|--------------------------------------------------------------------|

|--------------------------------------------------------------------|
|--------------------------------------------------------------------|
|-------------0------------------------------------------------------|
|-------0h1h3---1-1--0---0-------------------------------------------|
|-3p2h3----------------1---3-----------------------------------------|
|--------------------------------------------------------------------|

riff C (0:36) (acoustic)
|--------------------------------------------------------------------|
|--------------------------------------------------------------------|
|--------------------------------------------------------------------|
|-1-1p0h----1-1-0------1-1p0h----1-3-0-------------------------------|
|--------3--------------------3--------------------------------------|
|--------------------------------------------------------------------|
(4x)
riff D (0:55) (Distortion)
|--------------------------------------------------------------------|
|--------------------------------------------------------------------|
|-------------0------------------------------------------------------|
|-------0h1h3---1-1--0---0--1p0h-------------------------------------|
|-3p2h3----------------1---------3-2---------------------------------|
|--------------------------------------------------------------------|

|--------------------------------------------------------------------|
|--------------------------------------------------------------------|
|-------------0------------------------------------------------------|
|-------0h1h3---1-1--0---0--1-3-0------------------------------------|
|-3p2h3----------------1---------------------------------------------|
|--------------------------------------------------------------------|

|--------------------------------------------------------------------|
|--------------------------------------------------------------------|
|-------------0------------------------------------------------------|
|-------0h1h3---1-1--0---0--1p0h-------------------------------------|
|-3p2h3----------------1---------3-2---------------------------------|
|--------------------------------------------------------------------|

|--------------------------------------------------------------------|
|--------------------------------------------------------------------|
|-------------0------------------------------------------------------|
|-------0h1h3---1-1--0---0-------------------------------------------|
|-3p2h3----------------1---3-----------------------------------------|
|--------------------------------------------------------------------|

riff E (1:15)
|--------------------------------------------------------------------|
|--------------------------------------------------------------------|
|--------------------------------------------------------------------|
|-1-----1----------------------1-3-1---------------------1-0-1-3-1-0-|
|---3-----5h6p5p3h5-5h6p5p3h5--------5h6p5p3h5-5h6p5p3h5-------------|
|--------------------------------------------------------------------|
(2x)
riff F (1:42)
|--------------------------------------------------------------------|
|-4---4--3---3--4---4--6-3-6--4---4--3-------------------------------|
|---5------5------5-------------5------5-4-5-------------------------|
|----------------------------------------------5-3-------------------|
|--------------------------------------------------6-5---------------|
|--------------------------------------------------------------------|
x x x x
(2x)
riff D (Distortion)
|--------------------------------------------------------------------|
|--------------------------------------------------------------------|
|-------------0------------------------------------------------------|
|-------0h1h3---1-1--0---0--1p0h-------------------------------------|
|-3p2h3----------------1---------3-2---------------------------------|
|--------------------------------------------------------------------|

|--------------------------------------------------------------------|
|--------------------------------------------------------------------|
|-------------0------------------------------------------------------|
|-------0h1h3---1-1--0---0--1-3-0------------------------------------|
|-3p2h3----------------1---------------------------------------------|
|--------------------------------------------------------------------|

|--------------------------------------------------------------------|
|--------------------------------------------------------------------|
|-------------0------------------------------------------------------|
|-------0h1h3---1-1--0---0--1p0h-------------------------------------|
|-3p2h3----------------1---------3-2---------------------------------|
|--------------------------------------------------------------------|

|--------------------------------------------------------------------|
|--------------------------------------------------------------------|
|-------------0------------------------------------------------------|
|-------0h1h3---1-1--0---0-------------------------------------------|
|-3p2h3----------------1---3-----------------------------------------|
|--------------------------------------------------------------------|

riff C (Distortion)
|--------------------------------------------------------------------|
|--------------------------------------------------------------------|
|--------------------------------------------------------------------|
|-1-1p0h----1-1-0------1-1p0h----1-3-0-------------------------------|
|--------3--------------------3--------------------------------------|
|--------------------------------------------------------------------|
(4x)
riff G (acoustic) (2:41)
|--------------------------------------------------------------------|
|---------8-6--------8-6------------------6h-------------------------|
|-5---7-------8-5h7------8-5h7--7--8p7h8p----7--5--------------------|
|--------------------------------------------------------------------|
|--------------------------------------------------------------------|
|--------------------------------------------------------------------|
(2x)
riff H (Distortion) (3:01)
|--------------------------------------------------------------------|
|--------------------------------------------------------------------|
|--------------------------------------------------------------------|
|--------5-3--------5-3------------------3h--------------------------|
|-3---5------6-3h5------6-3h5--5--6p5h6p----5--3---------------------|
|--------------------------------------------------------------------|
(2x)
riff I (solo) (3:20)
|--------------------------------------------------------------------|
|--------------------------------------------------------------------|
|-/12~-12p10h12-12p10p8-7h8p7-\5-\3~---------------------------------|
|--------------------------------------------------------------------|
|--------------------------------------------------------------------|
|--------------------------------------------------------------------|

|--------------------------------------------------------------------|
|----------------------------------------------------------16p15p13--|
|-5~-7h8-10p8h10-10p8p7~--(fast part is missing----16p15p13----------|
|----------------------------probably like:--------------------------|
|--------------------------------------------------------------------|
|--------------------------------------------------------------------|
(this part very fast, maybe double the small riffs)
|--------------------------------------------------------------------|
|-16p15h16~--16p13h16-15p13h15-16p15h16-18p16h18-16p13h16-15p13----13|
|---------------------------------------------------------------15---|
|--------------------------------------------------------------------|
|--------------------------------------------------------------------|
|--------------------------------------------------------------------|

riff J during solo
|--------------------------------------------------------------------|
|--------------------------------------------------------------------|
|--------------------------------------------------------------------|
|------------------------------3---5--5p3----------------------------|
|-3--3h5-6---3--3h5-6---5--5h6------------6-5-3----------------------|
|--------------------------------------------------------------------|
(4x)
riff E
|--------------------------------------------------------------------|
|--------------------------------------------------------------------|
|--------------------------------------------------------------------|
|-1-----1----------------------1-3-1---------------------1-0-1-3-1-0-|
|---3-----5h6p5p3h5-5h6p5p3h5--------5h6p5p3h5-5h6p5p3h5-------------|
|--------------------------------------------------------------------|
(2x)
riff F
|--------------------------------------------------------------------|
|-4---4--3---3--4---4--6-3-6--4---4--3-------------------------------|
|---5------5------5-------------5------5-4-5-------------------------|
|----------------------------------------------5-3-------------------|
|--------------------------------------------------6-5---------------|
|--------------------------------------------------------------------|
x x x x
(2x)
riff D (Distortion)
|--------------------------------------------------------------------|
|--------------------------------------------------------------------|
|-------------0------------------------------------------------------|
|-------0h1h3---1-1--0---0--1p0h-------------------------------------|
|-3p2h3----------------1---------3-2---------------------------------|
|--------------------------------------------------------------------|

|--------------------------------------------------------------------|
|--------------------------------------------------------------------|
|-------------0------------------------------------------------------|
|-------0h1h3---1-1--0---0--1-3-0------------------------------------|
|-3p2h3----------------1---------------------------------------------|
|--------------------------------------------------------------------|

|--------------------------------------------------------------------|
|--------------------------------------------------------------------|
|-------------0------------------------------------------------------|
|-------0h1h3---1-1--0---0--1p0h-------------------------------------|
|-3p2h3----------------1---------3-2---------------------------------|
|--------------------------------------------------------------------|

|--------------------------------------------------------------------|
|--------------------------------------------------------------------|
|-------------0------------------------------------------------------|
|-------0h1h3---1-1--0---0-------------------------------------------|
|-3p2h3----------------1---3-----------------------------------------|
|--------------------------------------------------------------------|

riff G (acoustic) (till end of song)
|--------------------------------------------------------------------|
|---------8-6--------8-6------------------6h-------------------------|
|-5---7-------8-5h7------8-5h7--7--8p7h8p----7--5--------------------|
|--------------------------------------------------------------------|
|--------------------------------------------------------------------|
|--------------------------------------------------------------------|
(3x)

  Visit MetalTabs.com for more metal tablature

bottom separator

Contact Us | Privacy Policy | Disclaimer | Legal Notice
Copyright © 2001-2014 MetalTabs.com. All Rights Reserved.