top separator

Home

Forum

What's New

Submit a Tab

FAQ

Links

Contact Us

Link to Us

MetalTabs.com logo

Bands

0-9

A

B

C

D

E

F

G

H

I

J

K

L

M

N

O

P

Q

R

S

T

U

V

W

X

Y

Z

Search

What

Where
 

Life Hates Me - "Breathe" Guitar Tab

Plain Text Version
More Life Hates Me Tabs

Hits: 2704
Updated: 2003-08-11 13:21:26

 

By:

metaltabs28

sendpm.gif

email.gif

Important note
We did our best to reach Life Hates Me and ask for their permission to publish this tab. Unfortunately they did not respond to our requests or we could not find a way to contact them. This tab is available online until Life Hates Me tells us to take it down.


#----------------------------------PLEASE NOTE---------------------------------#
#This file is the author's own work and represents their interpretation of the #
#song. You may only use this file for private study, scholarship, or research. #
#Unless specified otherwise, this is NOT an official tab from the band members.#
#------------------------------------------------------------------------------#

  Visit MetalTabs.com for more metal tablature
  
Band: Life Hates Me
Song: Breathe
Album: Imperfections

Copyright (c) Drowned Out Music, 1999/2000
Version 1.0 - 7/23/03

Transcribed By: metaltabs28
Email: metaltabs28@yahoo.com

h  - hammer on
p  - pull off
b  - Bend
\ - slide down to
r  - release bend             *more symbol comments at end*
*  - hold note
v  - downstroke
^  - upstroke
pb - pre bend

Tuning: Standard

*****new ep available for complete download at their site soon*****

Riff A (with effect)
|-----------------------------------------------------------------|
|-----------------------------------------------------------------|
|-----------------------------------------------------------------|
|-----------------------------------------------------------------|
|--------4---4-----------3----3-----------4---4-----------3-------|
|--4--4----4-------4--4----4--------4--4----4-------4--4----------|

Fill 1
|----------------14-14-14--|
|--pb8r--10b*--------------|
|--------------------------|
|--------------------------|
|--------------------------|
|--------------------------|

Chorus x4
|---------------------------------|
|---------------------------------|
|----------------------66--44-----|
|--8888-8-8888---6666--66--44-----|
|--8888-8-8888---6666--44--22-----|
|--6666-6-6666---4444-------------|
   vvvv ^ v^vv

Riff B (bass arranged for the guitar)
|----------------------------------------------------|
|----------------------------------------------------|
|----------------------------------------------------|
|----------------------------------------------------|
|----------------------------------------------------|
|--6-6---4-4---1-1-1---4-4---6-6-6---4-4---1-1-1-----|

Fill 2
|------------------|
|--pb8r--10b*------|
|------------------|
|------------------|
|------------------|
|------------------|

Riff A x2
Chorus x4
riff B
Fill 2
Riff A x4
Chorus x4

Bridge
|--------------------------|
|--------------------------|
|--------------------------|repeat and modify as necessary
|--9\8--888--777-7/9--99---|
|--9\8--888--777-7/9--99---|
|--7\6--666--555-5/7--77---|

bridge 2 (repeat as necessary)
|---------------|---------------|----------------|----------------|
|---------------|---------------|----------------|----------------|
|---------------|---------------|----------------|----------------|
|--8----7----9--|--8----7----9--|--8----7----9---|--8----7----9---|
|--8----7----9--|--8----7----9--|--8----7----9---|--8----7----9---|
|--6*---5*---7*-|--6*---5*---7*-|--6*---5*---7*--|--6*---5*---7*--|

end bridge on
|------|
|------|
|------|
|--7---|
|--7---|
|--5*--|

Riff B
Riff A x4
Chorus x4
Bridge x1

                   **end of song**

--http://www.lifehatesme.com--

**NEWS**
LHM's new ep will be released at Dreamstreet, but it is 21+ and in San Diego. Luckily
the guys are cool enough that they will put the entire thing up for download on their
website. So keep your eyes peeled for that. I also saw on their music page on their site
under the Imperfections cd picture it says 'out of print'. But you can still get the
entire thing on their artist page on mp3.com when you click 'preview tracks'. I was
lucky enough to get a copy at music trader (and to be a San Diegan) and I recommend
listening to the ep. It will probably be released in stores someday. It might be hard
to find for many viewing this because I know a lot of you on this site don't even live
in the U.S., let alone California. But we're lucky enough to be able to get the ep on
the net, and no one will be a jerk and sue you.

Ok, enough of my chatter and on the my footer-

As always, suggestions, comments, or anything else always welcome
****Email:metaltabs28@yahoo.com  AIM:metaltabs28  MSN:switchedfan

  Visit MetalTabs.com for more metal tablature

bottom separator

Contact Us | Privacy Policy | Disclaimer | Legal Notice
Copyright © 2001-2014 MetalTabs.com. All Rights Reserved.