top separator

Home

Forum

What's New

Submit a Tab

FAQ

Links

Contact Us

Link to Us

MuSpy.com

MetalTabs.com logo

Bands

0-9

A

B

C

D

E

F

G

H

I

J

K

L

M

N

O

P

Q

R

S

T

U

V

W

X

Y

Z

Search

What

Where
 

Decapitated - "The First Damned" Guitar Tab

Plain Text Version
More Decapitated Tabs

Hits: 15320
Rated: 2.75 out of 5 (16 votes)
Updated: 2003-12-28 09:45:54

 

By:

SpiritCrusher

sendpm.gif

email.gif

Important note
This tab is available online because we obtained explicit permission from Decapitated or their label.


#----------------------------------PLEASE NOTE---------------------------------#
#This file is the author's own work and represents their interpretation of the #
#song. You may only use this file for private study, scholarship, or research. #
#Unless specified otherwise, this is NOT an official tab from the band members.#
#------------------------------------------------------------------------------#

  Visit MetalTabs.com for more metal tablature
  
Band:  Decapitated
Album: Winds of Creation
Song:  The First Damned

Copyright (c)  Earache Records (2000)
Version 3.0 - November 27, 2003

Transcribed By: Antoine Poliquin
Email:          legrandtony@hotmail.com

.  - palm mute           /  - slide up to
\  - slide down to       ~  - vibrato
h  - hammer on           b  - Bend  e.g.: 10b(12) = bend à la fret 10 de 1 ton
p  - pull off            pb - pre-Bend
t  - tap                 dv - dive (tremolo bar) e.g.: 3dv(1) = atteindre le pitch de la fret 1
h.a. harmonique artificielle
*  - commentaire         r - release bend
x  - Stuccatto           ~  - vibrato bend
,  - slight palm mute    () - ghost note, sustained note
"  - tremolo note        <> - Trill

Tunning D G C F A D

Tempo : 150
4/4, triplets most of the time
Version Guitar Pro 4 disponible
-----------------------------------------------------------------------------
RIFF 1 :
D||------------------------|-------------------------|
A||------------------------|-------------------------|
F||------------------------|-------------------------|
C||------------------------|------------------h.a.---|guit. 1 : harmonique artificielle
G||0000003-0-7-3-0-7-3-0-7-|------2222224444556~-----|guit. 2 : powerchord D#
D||------------------------|444444-------------------|
         . . . . . . . . .

|------------------------|------------------------||
|------------------------|------------------------||
|------------------------|------------------------||
|------------------------|------------------------||
|0000003-0-7-3-0-7-3-0-7-|------------5---5-5---5-||
|------------------------|4444444444443---3-3---3-||
       . . . . . . . . .                  .     .

-Jouer le Riff 1 3x

Ensuite :
||------------------------|------------------------||
||------------------------|------------------------||
||------------------------|------------------------||
||--------------------drum fill--------------------||
||4-4-4-4-----------------|--------x/pick scrape---||
||2-2-2-2-----------------|------------------------||
  . . . .

RIFF 2
||------------------------|------------------------|
||------------------------|------------------------|
||------------------------|------------------------|
||------------------------|------------------------|
||------------------4p1-4-|333333--------------4/6-|
||111111111111111111------|------44444422222222----|
                        .

|------------------------|------------------------|
|------------------------|------------------------|
|------------------------|------------------------|
|------------------------|----------------1-------|
|------------------4p1-4-|4p3-------1-3-4---4-3---|
|111111111111111111------|----1-2-4-------------4-|
                       .      . . . . . .   . . .

|------------------------|------------------------|
|------------------------|------------------------|
|------------------------|------------------------|
|------------------------|------------------------|
|------------------4p1-4-|333333--------------5-4-|
|111111111111111111------|------444444222222223-2-|

                      .

|------------------------|------------------------||
|------------------------|------------------------||
|------------------------|------------------------||
|------------------------|------------------------||
|3-----------------4p1-4-|4p3-------1-------4p3---||
|1-----111111111111------|----1-3-4---4-2-1-----4-||
                       .      . . .   . . .     .

Jouer le Riff 2 3x, et la dernière fois remplacer la dernière mesure par celle-ci :

||------------------------||
||------------------------||
||------------------------||
||------------------------||
||4p3-------1-------6\5/6-||
||----1-3-4---4-2-1-4\3/4-||
      . . .   . . .

RIFF 3 :
||------------------------|------------------------|
||------------------------|------------------------|
||------------------------|------------------------|
||------------------------|------------------3\----|
||------------------------|------1111112222223\----|
||000000111111000000444444|333333------------1\----|

 *
|------------------------|----------------------------||
|------4-----3/----------|----------------------------||
|------5-----4/----------|5-----4/5\4\----------------||recommencer au
|------5-----4/----------|7-----6/7\6\----------------||début du Riff 3
|2-2-2-3-----2/----2---2-|7-----6/7\6\------5/6---5---||
|0-0-0-------------0---0-|5-----4/5\4\----0-3/4-0-3---||
 . . .             .   .                  .     .

*continuer ici la 2e fois :
||----------------------------|--------------------------||
||----------------------------|--------------------------||
||------8/-11-11-11\-10-10-10-|8\-7--7--7---5\-4--4--4---||
||------8/-11-11-11\-10-10-10-|8\-7--7--7---5\-4--4--4---||
||2-2-2-6/-9--9--9-\-8--8--8--|6\-5--5--5---3\-2--2--2---||
||0-0-0-----------------------|--------------------------||
  . . .

Jouer Riff 3 2x

SOLO 1 (Vogg):
||------------------------------------|---------------------------------|
||---------------------------11-13-14-|13-11----------11-13-14-11-13~---|
||10-------10----13-10-12-13----------|------13-12-13-------------------|
||---10-11----11----------------------|---------------------------------|
||------------------------------------|---------------------------------|
||------------------------------------|---------------------------------|
     .  .     .

|-----------------------------------------------------------------|
|14p13p11---------------------------------------------------------|
|--------13p12p10/9-10h12p10p9-------------9h10h12p10/12-13-12-13-|
|-----------------------------11p10p8h10h11-----------------------|
|-----------------------------------------------------------------|
|-----------------------------------------------------------------|

|------------------------------------------11-12-13-|
|11h13h14p13p11-------------------11-13-14----------|
|--------------13p12p10/9H10h12/13------------------|
|---------------------------------------------------|
|---------------------------------------------------|
|---------------------------------------------------|

|------------------------------------|-------------------------------|
|------------------------------------|---------------------------h.a.|
|10-------10-------12-------12-------|13-------10-------13/15-15-15~-|
|---10-10----10-10----11-10----11-10-|---10-10----10-10--------------|
|------------------------------------|-------------------------------|
|------------------------------------|-------------------------------|
    .  .     .  .                        .  .     .  .

|---------------------------------------|
|---------------------------------------|
|15b17~---17~--20p18p17--17h18-20-18-17-|
|----------------------20---------------|
|---------------------------------------|
|---------------------------------------|

|-------------------------------18-18-18b(20)-|18pb(20)~-----------|
|18p17-17-------17-17h18-18b(21)--------------|--------------------|
|---------17-17-------------------------------|--------------------|
|---------------------------------------------|--------------------|
|---------------------------------------------|--------------------|
|---------------------------------------------|--------------------|

RYTHME DU SOLO 1 :
||------------------------|------------------------|
||------------------------|------------------------|
||------------------------|------------------------|
||------------------------|------------------------|
||------------------4p1-4-|333333--------------4/6-|
||111111111111111111------|------4444442222222-----|
                        .

|------------------------|------------------------||
|------------------------|------------------------||
|------------------------|------------------------||
|------------------------|------------------------||
|------------------------|------------------------||
|000000000000000000000000|000000000000000000000000||

Jouer 2x le RYTHME DU SOLO pendant le solo

Ensuite, jouer RIFF 2 2x
La 2e fois, changer la dernière mesure pour
||------------------------||
||------------------------||
||------------------------||
||------------------------||
||4p3-------1-------6\5/6-||
||----1-3-4---4-2-1-4\3/4-||
      . . .   . . .

Ensuite jouer RIFF 3 2x

RIFF 4a (fast !):
||--------------------------------|--------------------------------||
||--------------------------------|--------------------------------||
||--------------------------------|--------------------------------||
||--------------------------------|--------------------------------||
||------5---4-------3-----------3-|------2-1---4---3---1---3---4---||
||2-4-5---2---2-4-5---5-4-2-4-5---|2-4-5---1---4---3---1---3---4---||
  . . .   .   . . .   . . . . .    . . . . .   .   .   .   .

RIFF 4b
||--------------------------------|
||--------------------------------|
||--------------------------------|
||--------------------------------|
||------5---4-------3-----------3-|
||2-4-5---2---2-4-5---5-4-2-4-5---|
  . . .   .   . . .   . . . . .

 ________________________________ ________________________________
|1.3.                            |2.
|--------------------------------|--------------------------------|
|--------------------------------|--------------------------------|
|--------------------------------|--------------------------------|
|--------------------------------|----------------3/4-4/3-3/2-2/1-|
|------2-------5---2-------5---2-|------2---------3/4-4/3-3/2-2/1-|
|2-4-5---2-4-5---2---2-4-5---2---|2-4-5---5-2-4-2-----------------|
 . . .   . . .   .   . . .   .    . . .   . . . .

 _________________________________
|4.
|---------------------------------||
|---------------------------------||
|---------------------------------||
|---------------------------------||
|------2-------5-6/5-5/3/5/6------||
|2-4-5---2-4-5---4/3-3/1/3/4------||
 . . .   . . .

Jouer RIFF 4b 2x
la 2e fois, jouer ceci :
 _______________________________
|4.
|--------------------------------||
|--------------------------------||
|--------------------------------||
|--------------------------------||
|------2-1---4---3---1---3---4---||
|2-4-5---1---4---3---1---3---4---||
 . . . . .   .   .   .   .

SOLO 2 (Vogg) :

||21b(23)~---------------|-----------24b(28)~-----|
||-h.a.------------------|-------------h.a.-------|
||-----------------------|------------------------|
||-----------------------|5dv(0)------------------|
||-----------------------|------------------------|
||-----------------------|------------------------|

|----------------------------------------|
|----------------------------------------|
|--------------7---------------7--9--10--| (then noisy stuff with the tremolo)
|7--9--10--10-----9--7--9--10------------|
|----------------------------------------|
|----------------------------------------|

|------------------------------------|------------------------------------|
|---------------------------------15-|16----15-------15-16----15-------15-|
|---------------14----17-14-16-17----|---17----16-17-------17----16-17----|
|---13----16-13----16----------------|------------------------------------|
|12----15----------------------------|------------------------------------|
|------------------------------------|------------------------------------|
 .  .  .  .  .  .  .  .

|------------------------------------|-----------------24b(28)~-----------|
|17~---16h17p16\---5~---4h5p4~-------|-------------------h.a.-------------|
|--------------------------------3---|------------------------------------|
|------------------------------------|3dv(0)------------------------------|
|------------------------------------|------------------------------------|
|------------------------------------|------------------------------------|

RYTHME DU SOLO 2 : RIFF 1

Fin de la partition, mais il reste des riffs à tabber...
-------------------------------------------------------------------
(c) The Toyne 2003

  Visit MetalTabs.com for more metal tablature

bottom separator

Contact Us | Privacy Policy | Disclaimer | Legal Notice
Copyright © 2001-2014 MetalTabs.com. All Rights Reserved.