top separator

Home

Forum

What's New

Submit a Tab

FAQ

Links

Contact Us

Link to Us

MetalTabs.com logo

Bands

0-9

A

B

C

D

E

F

G

H

I

J

K

L

M

N

O

P

Q

R

S

T

U

V

W

X

Y

Z

Search

What

Where
 

Celtic Frost - "Return to the Eve" Guitar Tab

Plain Text Version
More Celtic Frost Tabs

Hits: 6251
Rated: 5.00 out of 5 (2 votes)
Updated: 2003-08-10 05:57:57

 

By:

Chad

sendpm.gif

email.gif

Important note
This tab is available online because we obtained explicit permission from Celtic Frost or their label.


#----------------------------------PLEASE NOTE---------------------------------#
#This file is the author's own work and represents their interpretation of the #
#song. You may only use this file for private study, scholarship, or research. #
#Unless specified otherwise, this is NOT an official tab from the band members.#
#------------------------------------------------------------------------------#

  Visit MetalTabs.com for more metal tablature
  
Band:  Celtic Frost

Album: Morbid Tales

Song:  Return To The Eve

Copyright (c)  Noise Records 1984
Version 1.0 -  July 2003

Transcribed By: Chad
Email:          claing@cgg.com


.  - palm mute           /  - slide up to
\  - slide down to       ~  - vibrato
h  - hammer on           b  - Bend
p  - pull off            Suffixes for bend
t  - tap                 f  - full bend    h - half bend
ph - pinched harmonic    q  - quarter bend t - tap bend
*  - see comment         ^  - Hold bend    r release bend
x  - Staccato           ~  - vibrato bend
,  - slight palm mute    () - ghost note, sustained note
"  - tremolo note        <> - Trill

Tuning E B G D A E

Riff 1a:

|---------------|----------------|
|---------------|----------------|
|*--------------|---------------*|
|*--------------|--------5-4-5--*| Gtr.1
|-4-4-4---------|-4-4-4--3-2-3---|
|-2-2-2--1------|-2-2-2----------|
         ph

|---------------|----------------|
|---------------|----------------|
|*--------------|---------------*|
|*--------------|--------5-4-5--*| Gtr.2
|--------3------|--------3-2-3---|
|--------1------|----------------|

Play twice.

Riff 1b:

|-------------------------|---------------------------|
|-------------------------|---------------------------|
|*------------------------|--------------------------*|
|*------------------------|-------------------5-4-5--*|
|-4--4-4-4-4--4-4-4-------|-4--4-4-4-4--4-4-4-3-2-3---|
|-2--2-2-2-2--2-2-2-1-----|-2--2-2-2-2--2-2-2---------|
                    ph
Play this riff 4 times.

Riff 2:

|-----------------|---------------|
|-----------------|---------------|
|*----------------|--------------*|
|*----------------|-------3------*|
|-3-4-2-2-2-2-2-2-|-3-4---1-------|
|-1-2-0-0-0-0-0-0-|-1-2-0---------|
      . . . . . .       .
Play this riff 4 times.

Riff 3:

|---------------|--------------|---------------|--------------|----------|
|---------------|--------------|---------------|--------------|----------|
|*--------------|--------------|---------------|--------------|---------*|
|*--------------|--------------|---------------|--------------|-3-------*|
|---------------|--------------|---------------|--------------|-1--------|
|-2h44444444444-|-444444444444-|-2h44444444444-|-444444444444-|----------|

Play this once.

Then play;

Riff 1b 4X
Riff 2 4X
Riff 3 1X
Riff 1a 2X
Riff 2 4X-with solo
Riff 3 1X

Then play;

Riff 4:

|-------------------------|-------------------------|
|-------------------------|-------------------------|
|*------------------------|------------------------*|
|*------------------------|------------------------*|
|-------------3-----------|-5-----------3-----------|
|-0-0-0-0-0-0-1-0-0-0-0-0-|-3-0-0-0-0-0-1-0-0-0-0-0-|
  . . . . . .   . . . . .     . . . . .   . . . . .
Gtr.1 play this riff 6 times, with gtr.2 doubling the last 4 times.

Then play;

Riff 1b 4X
Riff 2 4X
Riff 3 1X
Riff 3 4X
And done!

  Visit MetalTabs.com for more metal tablature

bottom separator

Contact Us | Privacy Policy | Disclaimer | Legal Notice
Copyright © 2001-2014 MetalTabs.com. All Rights Reserved.