top separator

Home

Forum

What's New

Submit a Tab

FAQ

Links

Contact Us

Link to Us

MetalTabs.com logo

Bands

0-9

A

B

C

D

E

F

G

H

I

J

K

L

M

N

O

P

Q

R

S

T

U

V

W

X

Y

Z

Search

What

Where
 

Samael - "Knowledge of the Ancient Kingdom" Guitar Tab

Plain Text Version
More Samael Tabs

Hits: 5614
Rated: 3.00 out of 5 (1 vote)
Updated: 2003-08-10 05:56:43

 

By:

Darkenelf

sendpm.gif

email.gif

Important note
This tab is available online because we obtained explicit permission from Samael or their label.


#----------------------------------PLEASE NOTE---------------------------------#
#This file is the author's own work and represents their interpretation of the #
#song. You may only use this file for private study, scholarship, or research. #
#Unless specified otherwise, this is NOT an official tab from the band members.#
#------------------------------------------------------------------------------#

  Visit MetalTabs.com for more metal tablature
  
Band: Samael
Album: Worship Him
Song: Knowledge of the Ancient Kingdom
Tabbed by: Martijn Wietsma (Darkenelf)
Tab Date: 22-07-2003
Email: dalvanian@yahoo.com

For more tabs from me,
goto: http://www.doomish.com/go/?r=Darkenelf


Standard E Tuning

riff A
|---------------------------------------------------------------|
|---------------------------------------------------------------|
|---------------------------------------------------------------|
|---------------------------------------------------------------|
|-9------7------9------7----------------------------------------|
|-7------5------7------5----------------------------------------|
						(1x)
riff B (0:21)
|---------------------------------------------------------------|
|---------------------------------------------------------------|
|---------------------------------------------------------------|
|-----------------------2-------------------2-------------------|
|-9------7------9----5--2--7-----7-7--9--5--2--7---7-7-9--5-7-4-|
|-7------5------7----3--0--5-5---5-5--7--3--0--5-5-5-5-7--3-5-2-|
                             x                   x
						(1x)
riff C (0:48)
|---------------------------------------------------------------|
|---------------------------------------------------------------|
|---------------------------------------------------------------|
|--------------------------------2------------------------------|
|-4-5--4---4-5--4---4-5--4---5-4-2------------------------------|
|-2-3--2---2-3--2---2-3--2---3-2-0------------------------------|
						(1x)
riff D (1:08)
|---------------------------------------------------------------|
|---------------------------------------------------------------|
|---------------------------------------------------------------|
|-2------2------------------2------2----------------------------|
|-2------2------5--4/5\4----2------2------7-5--4--7--9----------|
|-0-0000-0-0000-3--2/3\2----0-0000-0-0000-5-3--2--5--7----------|
    xxxx   xxxx               xxxx   xxxx	(1x)

riff E (1:25)
|---------------------------------------------------------------|
|---------------------------------------------------------------|
|---------------------------------------------------------------|
|---------------------------------------------------------------|
|-12-10-9--9999-999-----12-10-9--9999-999-----------------------|
|-10--8-7--7777-777-----10--8-7--7777-777-----------------------|
						(4x)
riff F (1:52)
|---------------------------------------------------------------|
|---------------------------------------------------------------|
|---------------------------------------------------------------|
|---------------------------------------------------------------|
|-17-15-14--14-14-14-14--14-14-14-------------------------------|
|-15-13-12--12-12-12-12--12-12-12-------------------------------|
						(2x)
riff G (1:57)
|---------------------------------------------------------------|
|---------------------------------------------------------------|
|---------------------------------------------------------------|
|---------------------------------------------------------------|
|-12-10-9--9999-999-----12-10-9--9999---9---5---7---------------|
|-10--8-7--7777-777-----10--8-7--7777---7---3---5---------------|
						(1x)
riff H (2:09)
|---------------------------------------------------------------|
|---------------------------------------------------------------|
|---------------------------------------------------------------|
|---------------------------------------------------------------|
|-9--5p4--7----7-7--9-5-4---------------------------------------|
|-7--3p2--5-5--5-5--7-3-2---------------------------------------|
            x					(1x)
riff I
|---------------------------------------------------------------|
|---------------------------------------------------------------|
|---------------------------------------------------------------|
|-2------2-------------2------2---------------------------------|
|-2------2------5-4----2------2------7-5-7----------------------|
|-0-0000-0-0000-3-2----0-0000-0-0000-5-3-5----------------------|
    xxxx   xxxx          xxxx   xxxx		(1x)

riff J (2:47)
|---------------------------------------------------------------|
|---------------------------------------------------------------|
|---------------------------------------------------------------|
|---------2-----------------------------------------------------|
|-4-5--7--2----4-5-/-10-9---10-9-7------------------------------|
|-2-3--5--0----2-3-/--8-7----8-7-5------------------------------|

|---------------------------------------------------------------|
|---------------------------------------------------------------|
|---------------------------------------------------------------|
|---------2-----------------------------------------------------|
|-4-5--7--2----4-5-/-10-9---10-9-7-------5--7--4--9-------------|
|-2-3--5--0----2-3-/--8-7----8-7-5-------3--5--2--7-------------|

riff A
|---------------------------------------------------------------|
|---------------------------------------------------------------|
|---------------------------------------------------------------|
|---------------------------------------------------------------|
|-9------7------9------7----------------------------------------|
|-7------5------7------5----------------------------------------|
						(1x)
riff H (3:51)
|---------------------------------------------------------------|
|---------------------------------------------------------------|
|---------------------------------------------------------------|
|---------------------------------------------------------------|
|-9--5p4--7----7-7--9-5-4---------------------------------------|
|-7--3p2--5-5--5-5--7-3-2---------------------------------------|
            x					(1x)
riff K (4:06)
|---------------------------------------------------------------|
|---------------------------------------------------------------|
|---------------------------------------------------------------|
|----------------------------2----------------------------------|
|-9--5p4--7----7-7--5-4--5-4-2----------------------------------|
|-7--3p2--5-5--5-5--3-2--3-2-0----------------------------------|
            x					(1x)
riff I (4:17)
|---------------------------------------------------------------|
|---------------------------------------------------------------|
|---------------------------------------------------------------|
|-2------2-------------2------2---------------------------------|
|-2------2------5-4----2------2------7-5-7----------------------|
|-0-0000-0-0000-3-2----0-0000-0-0000-5-3-5----------------------|
    xxxx   xxxx          xxxx   xxxx		(1x)

riff H
|---------------------------------------------------------------|
|---------------------------------------------------------------|
|---------------------------------------------------------------|
|---------------------------------------------------------------|
|-9--5p4--7----7-7--9-5-4---------------------------------------|
|-7--3p2--5-5--5-5--7-3-2---------------------------------------|
            x					(1x)
riff K (end riff)
|---------------------------------------------------------------|
|---------------------------------------------------------------|
|---------------------------------------------------------------|
|----------------------------2----------------------------------|
|-9--5p4--7----7-7--5-4--5-4-2----------------------------------|
|-7--3p2--5-5--5-5--3-2--3-2-0----------------------------------|
            x					(1x)

  Visit MetalTabs.com for more metal tablature

bottom separator

Contact Us | Privacy Policy | Disclaimer | Legal Notice
Copyright © 2001-2014 MetalTabs.com. All Rights Reserved.