top separator

Home

Forum

What's New

Submit a Tab

FAQ

Links

Contact Us

Link to Us

MuSpy.com

MetalTabs.com logo

Bands

0-9

A

B

C

D

E

F

G

H

I

J

K

L

M

N

O

P

Q

R

S

T

U

V

W

X

Y

Z

Search

What

Where
 

Samael - "Rite of Cthulhu" Guitar Tab

Plain Text Version
More Samael Tabs

Hits: 4931
Rated: 2.00 out of 5 (4 votes)
Updated: 2003-08-10 05:56:21

 

By:

Darkenelf

sendpm.gif

email.gif

Important note
This tab is available online because we obtained explicit permission from Samael or their label.


#----------------------------------PLEASE NOTE---------------------------------#
#This file is the author's own work and represents their interpretation of the #
#song. You may only use this file for private study, scholarship, or research. #
#Unless specified otherwise, this is NOT an official tab from the band members.#
#------------------------------------------------------------------------------#

  Visit MetalTabs.com for more metal tablature
  
Band: Samael
Album: Worship Him
Song: Ride of Cthulhu
Tabbed by: Martijn Wietsma (Darkenelf)
Tab Date: 21-07-2003
Email: dalvanian@yahoo.com

For more tabs from me,
goto: http://www.doomish.com/go/?r=Darkenelf


Standard E Tuning

riff A (intro)
|-----------------------------------------------------------|
|-----------------------------------------------------------|
|-----------------------------------------------------------|
|-4~--4h5--5/8--8\5--4h5p4----------------------------------|
|-----------------------------------------------------------|
|-----------------------------------------------------------|
						(1x)
riff B
|-----------------------------------------------------------|
|-----------------------------------------------------------|
|-----------------------------------------------------------|
|-4h5--5/8--8\5--4h5p4--------------------------------------|
|-----------------------------------------------------------|
|-----------------------------------------------------------|
						(3x)
riff C (can be 444 as well (the palm muted part)
|-----------------------------------------------------------|
|-----------------------------------------------------------|
|-----------------------------------------------------------|
|-66----66----66----77---66----66----66----99---------------|
|-44-44-44-44-44-44-55---44-44-44-44-44-44-77---------------|
|-----------------------------------------------------------|
     xx    xx    xx         xx    xx    xx	(4x)

riff A
|-----------------------------------------------------------|
|-----------------------------------------------------------|
|-----------------------------------------------------------|
|-4~--4h5--5/8--8\5--4h5p4----------------------------------|
|-----------------------------------------------------------|
|-----------------------------------------------------------|
						(1x)
riff B
|-----------------------------------------------------------|
|-----------------------------------------------------------|
|-----------------------------------------------------------|
|-4h5--5/8--8\5--4h5p4--------------------------------------|
|-----------------------------------------------------------|
|-----------------------------------------------------------|
						(3x)
riff C (till end of song)
|-----------------------------------------------------------|
|-----------------------------------------------------------|
|-----------------------------------------------------------|
|-66----66----66----77---66----66----66----99---------------|
|-44-44-44-44-44-44-55---44-44-44-44-44-44-77---------------|
|-----------------------------------------------------------|
     xx    xx    xx         xx    xx    xx	(4x)

  Visit MetalTabs.com for more metal tablature

bottom separator

Contact Us | Privacy Policy | Disclaimer | Legal Notice
Copyright © 2001-2014 MetalTabs.com. All Rights Reserved.