top separator

Home

Forum

What's New

Submit a Tab

FAQ

Links

Contact Us

Link to Us

MuSpy.com

MetalTabs.com logo

Bands

0-9

A

B

C

D

E

F

G

H

I

J

K

L

M

N

O

P

Q

R

S

T

U

V

W

X

Y

Z

Search

What

Where
 

Hades Almighty - "Awakening Of Kings" Guitar Tab

Plain Text Version
More Hades Almighty Tabs

Hits: 4446
Rated: 3.00 out of 5 (1 vote)
Updated: 2003-08-10 05:51:21

 

By:

Darkenelf

sendpm.gif

email.gif

Important note
This tab is available online because we obtained explicit permission from Hades Almighty or their label.


#----------------------------------PLEASE NOTE---------------------------------#
#This file is the author's own work and represents their interpretation of the #
#song. You may only use this file for private study, scholarship, or research. #
#Unless specified otherwise, this is NOT an official tab from the band members.#
#------------------------------------------------------------------------------#

  Visit MetalTabs.com for more metal tablature
  
Band: Hades Almighty
Album: The Dawn of the Dying Sun
Song: Awakening of Kings
Tabbed by: Martijn Wietsma (Darkenelf)
Tab Date: 21-07-2003
Email: dalvanian@yahoo.com

For more tabs from me,
goto: http://www.doomish.com/go/?r=Darkenelf

Standard E Tuning

riff A
|-------------------------------------------------------------------|
|-------------------------------------------------------------------|
|-------------------------------------------------------------------|
|-------------------------------------------------------------------|
|---7-7--5h---------------------------------------------------------|
|-5---------8--7h8p7-5--7h8-8--7p5p3-7-5----------------------------|
							(2x)
riff B (play riff A+B together)
|-------------------------------------------------------------------|
|-------------------------------------------------------------------|
|-------------------------------------------------------------------|
|-9/10\9-9---9\7-9-9---9\7-7-7---7/9-9-9----------------------------|
|-7/-8\7-7---7\5-7-7---7\5-5-5---5/7-7-7----------------------------|
|-------------------------------------------------------------------|
							(4x)
riff C (lead) (0:52 on CD-time)
|-------------------------------------------------------------------|
|-------------------------------------------------------------------|
|-7h9-9-9--7h9-9h10-10----------------------------------------------|
|-------------------------------------------------------------------|
|-------------------------------------------------------------------|
|-------------------------------------------------------------------|
							(4x)
riff C (Chords)
|-------------------------------------------------------------------|
|-------------------------------------------------------------------|
|-------------------------------------------------------------------|
|-7/9-9-9--7/9-9/10-10----------------------------------------------|
|-5/7-7-7--5/7-7/-8--8----------------------------------------------|
|-------------------------------------------------------------------|
							(4x)
riff D (1:04 on CD-time)
|-------------------------------------------------------------------|
|-------------------------------------------------------------------|
|-------------------------------------------------------------------|
|-9--999-99-9/10-10-------------------------------------------------|
|-7--777-77-7/-8--8-------------------------------------------------|
|-------------------------------------------------------------------|
               x  x					(8x)
riff B	4x
riff C	lead+chords 4x
riff D	8x

riff E (2:23 on CD-time)
|-------------------------------------------------------------------|
|-------------------------------------------------------------------|
|-------------------------------------------------------------------|
|-10-10-10-10-10-10-10-10---9-9-9-9-9-9-9-9-------------------------|
|--8--8--8--8--8--8--8--8---7-7-7-7-7-7-7-7-------------------------|
|-------------------------------------------------------------------|
							(2x)
riff F
|-------------------------------------------------------------------|
|-------------------------------------------------------------------|
|-------------------------------------------------------------------|
|-9--9--999--9--999--10-10-10--10-10-10--10-------------------------|
|-7--7--777--7--777---8--8--8---8--8--8---8-------------------------|
|-------------------------------------------------------------------|
                                          X		(8x)
riff G
|-------------------------------------------------------------------|
|-------------------------------------------------------------------|
|-------------------------------------------------------------------|
|---9---9---9---9--------------------9---9---9---9------------------|
|-7---7---7---7-----9---9---9---9--7---7---7---7------9---9---9---9-|
|-----------------7---7---7---7---------------------7---7---7---7---|

riff B	8x
riff C	lead+chords 4x
riff D	16x

  Visit MetalTabs.com for more metal tablature

bottom separator

Contact Us | Privacy Policy | Disclaimer | Legal Notice
Copyright © 2001-2014 MetalTabs.com. All Rights Reserved.