top separator

Home

Forum

What's New

Submit a Tab

FAQ

Links

Contact Us

Link to Us

MetalTabs.com logo

Bands

0-9

A

B

C

D

E

F

G

H

I

J

K

L

M

N

O

P

Q

R

S

T

U

V

W

X

Y

Z

Search

What

Where
 

Life Hates Me - "Slur" Guitar Tab

Plain Text Version
More Life Hates Me Tabs

Hits: 2699
Updated: 2003-08-10 05:50:21

 

By:

metaltabs28

sendpm.gif

email.gif

Important note
We did our best to reach Life Hates Me and ask for their permission to publish this tab. Unfortunately they did not respond to our requests or we could not find a way to contact them. This tab is available online until Life Hates Me tells us to take it down.


#----------------------------------PLEASE NOTE---------------------------------#
#This file is the author's own work and represents their interpretation of the #
#song. You may only use this file for private study, scholarship, or research. #
#Unless specified otherwise, this is NOT an official tab from the band members.#
#------------------------------------------------------------------------------#

  Visit MetalTabs.com for more metal tablature
  
Band: Life Hates Me
Song: Slur
Album: Imperfections

Copyright (c) Drowned Out Music, 1999/2000
Version 1.0 - 7/18/03

Transcribed By: metaltabs28
Email: metaltabs28@yahoo.com

h  - hammer on           b  - Bend (1/2 step up and back to original pos.)
p  - pull off            r  - release bend      / - slide up to
*  - hold note           ^  - Hold bend         \ - slide down to

Tuning: Drop D (DADGBe)

*notes*
Haven't posted any tabs in a few weeks, but I had to start typing this up after my
cat took some bites out of my written draft. This song is pretty easy to play, but
there are a couple things that can be painful to your carpal tunnel if you play it
a certain way. A couple suggestions are in the tab.

*Effects*
You only need  distortion, but I like to use a delay for better sound. If you decide
to use the delay, I reccomend these settings:

Delay Time=0    Mode=1 (19-113ms)    Delay Level=10   Repeat=0

But again, the delay is very optional.
And remember, this is an LHM song so that means a LOT of distortion
If you need the song, you can get a free legal download at http://www.mp3.com/LifeHatesMe

Intro Riff A
|-----[x4]------|------[x4]-----|-----[x4]------|-----[x4]-------|
|---------------|---------------|---------------|----------------|
|---------------|--12-12-12-12--|---------------|--12-12-12-12---|
|--10-10-10-10--|--12-12-12-12--|--13-13-13-13--|--12-12-12-12---|
|--10-10-10-10--|--10-10-10-10--|--13-13-13-13--|--10-10-10-10---|
|--10-10-10-10--|---------------|--13-13-13-13--|----------------|

*the 12,12,10 power chord can be replaced by a 17,17,17 chord on the low 3 strings

Riff B
|-------------------------------------------------------------------------|
|-------------------------------------------------------------------------|
|-------------------------------------12-12-12-12-12br--12-12-12-12-12br--|
|-13-13-13-13-13br--13-13-13-13-13br--------------------------------------|
|-------------------------------------------------------------------------|
|-------------------------------------------------------------------------|
*remember to make these bends nice and slow*

Fill 1
|-----------------|
|-----------------|
|-----------------|
|--13---13\-17----|
|--13---13\-17----|
|--13*--13\-17*---|

Riff C x2
|--------------------------------------|
|--------------------------------------|
|-----------12*-12h13-12h13-12h13-12---|
|--13*--13-----------------------------|
|--------------------------------------|
|--------------------------------------|

Riff D x2
|-----------------------------------------------------------|
|-----------------------------------------------------------|
|-----------------------------12*--12h13p12--15--13--12-----|
|--13*--13h14p13--11-11h13*---------------------------------|
|-----------------------------------------------------------|
|-----------------------------------------------------------|
*on the 2nd time, leave out the --13--12-- and hold the 15* until verse

Verse Riff E
|-----[x4]------|------[x4]-----|-----[x4]------|-----[x4]-------|
|---------------|---------------|---------------|----------------|
|---------------|--12-12-12-12--|---------------|--12-12-12-12---|
|--13-13-13-13--|--12-12-12-12--|--13-13-13-13--|--12-12-12-12---|
|--13-13-13-13--|--10-10-10-10--|--13-13-13-13--|--10-10-10-10---|
|--13-13-13-13--|---------------|--13-13-13-13--|----------------|

Then this fill again:
|-----------------|
|-----------------|
|-----------------|
|--13---13\-17----|
|--13---13\-17----|
|--13*--13\-17*---|

*Play riff D x2 but don't change the ending the 2nd time*

Riff F (this is an addition to Riff D)
|--12*-12b--10-10h12*----16*-16b--19-17-16---12*-12b--10-10h12*---
|-----------------------------------------------------------------
|-----------------------------------------------------------------
|-----------------------------------------------------------------
|-----------------------------------------------------------------
|-----------------------------------------------------------------

 --16*-16b-19*----|
 -----------------|
 -----------------|
 -----------------|
 -----------------|
 -----------------|

Riff G x2
|-----------------------------------------------------------------------|
|-----------------------------------------------------------------------|
|-------------------------------------12-12---12-12---(12)12-12---12-12-|
|--13-13---13-13---(13)13-13--13-13---12-12---12-12---(12)12-12---12-12-|
|--13-13---13-13---(13)13-13--13-13---10-10---10-10---(12)10-10---10-10-|
|--13-13---13-13---(13)13-13--13-13-------------------------------------|

G.2 x2
|---------[x4]---------|---------[x4]-----------|
|----------------------|------------------------|
|--------12-12-12-12---|--------12-12-12-12-----|
|--13-13---------------|--12-12-----------------|
|--13-13---------------|--10-10-----------------|
|--13-13---------------|------------------------|
^^               ^^
*I reccomend barring you middle finger over only the low 3 strings and
have your index finger on the 12th fret. If you do it with the wrong
fingers you can see your wrist bulge and you'll get a shot of pain*

*Play Verse Riff E*
*Play Riff B*
Play Fill 1*

Ending:
|------------------------------------------|
|--8*----------------8*--------------------|
|-----7*-----------------7*----------------|
|---------10-----------------10--10*-------|
|-------------10*--------------------------|
|------------------------------------------|

Drum riff ends the song and guitars let out feedback

Song Time - 4:54

I finally got their style down now. This sounds very correct to me. Hope you like it.

--http://www.lifehatesme.com--

As always, suggestions, comments, or anything else always welcome
****Email:metaltabs28@yahoo.com  AIM:metaltabs28  MSN:switchedfan

  Visit MetalTabs.com for more metal tablature

bottom separator

Contact Us | Privacy Policy | Disclaimer | Legal Notice
Copyright © 2001-2014 MetalTabs.com. All Rights Reserved.