top separator

Home

Forum

What's New

Submit a Tab

FAQ

Links

Contact Us

Link to Us

MetalTabs.com logo

Bands

0-9

A

B

C

D

E

F

G

H

I

J

K

L

M

N

O

P

Q

R

S

T

U

V

W

X

Y

Z

Search

What

Where
 

Siebenbürgen - "As Of Sin" Guitar Tab

Plain Text Version
More Siebenbürgen Tabs

Hits: 4662
Rated: 2.67 out of 5 (6 votes)
Updated: 2003-10-05 14:46:47

 

Important note
This tab is available online because we obtained explicit permission from Siebenbürgen or their label.


#----------------------------------PLEASE NOTE---------------------------------#
#This file is the author's own work and represents their interpretation of the #
#song. You may only use this file for private study, scholarship, or research. #
#Unless specified otherwise, this is NOT an official tab from the band members.#
#------------------------------------------------------------------------------#

  Visit MetalTabs.com for more metal tablature
  
Author/Artist: Siebenbürgen
Title: As Of Sin
Album: Delictum
Transcribed by: Marcus Sander


 1x Riff1
------------------------------------------------------------------------------
------------------------------------------------------------------------------
------------------------------------------------------------------------------
--9----7-7-7-9----5-9---7-7-7-9------7------5------4--------------------------
--7----5-5-5-7----3-7---5-5-5-7-7777-5-5555-3-3333-2--------------------------
--------------------------------....---....---....----------------------------


------------------------------------------------------------------------------
------------------------------------------------------------------------------
------------------------------------------------------------------------------
-79----7-7-7-9----12-12-12-9--7-7-7-9------7------5------4--------------------
-57----5-5-5-7----10-10-10-7--5-5-5-7-7777-5-5555-3-3333-2--------------------
--------------------------------------....---....---....----------------------




 2x Riff2
------------------------------------------------------------------------------
------------------------------------------------------------------------------
------------------------------------------------------------------------------
-9------9------9------7-7-9------9------9------5------------------------------
-7-7777-7-7777-7-7777-5-5-7-7777-7-7777-7-7777-3------------------------------
---....---....---....-------....---....---....--------------------------------


------------------------------------------------------------------------------
------------------------------------------------------------------------------
------------------------------------------------------------------------------
-9------9------9------7-7-9------7------9------5-5----------------------------
-7-7777-7-7777-7-7777-5-5-7-7777-5-5555-7-7777-3-3----------------------------
---....---....---....-------....---....---....--------------------------------





 2x Riff3
------------------------------------------------------------------------------
------------------------------------------------------------------------------
------------------------------------------------------------------------------
-9------9------9------7-7-9------9------9------5------------------------------
-7-7777-7-7777-7-7777-5-5-7-7777-7-7777-7-7777-3------------------------------
---....---....---....-------....---....---....--------------------------------



------------------------------------------------------------------------------
------------------------------------------------------------------------------
------------------------------------------------------------------------------
-9------9------9------7-7-9------7------5------4-4----------------------------
-7-7777-7-7777-7-7777-5-5-7-7777-5-5555-3-3333-2-2----------------------------
---....---....---....-------....---....---....--------------------------------





 2x Riff4         ...Pick each note
------------------------------------------------------------------------------
------------------------------------------------------------------------------
------------------------------------------------------------------------------
-9.....10..7..9.....5..7..-------9.....10..7.....5.....4.....-----------------
------------------------------------------------------------------------------
------------------------------------------------------------------------------





4x Riff5
------------------------------------------------------------------------------
------------------------------------------------------------------------------
------------------------------------------------------------------------------
----7-7-7-7-7-7----------------7-7-7-7-7-7-101010-----------------------------
---5-5-5-5-5-5---7-7-7-7-7-7--5-5-5-5-5-5-8-8-8---5-8-------------------------
----------------5-5-5-5-5-5-----------------------3-6-------------------------





2x Riff6
------------------------------------------------------------------------------
------------------------------------------------------------------------------
------------------------------------------------------------------------------
-078-0-000-078-0-000-078-0-000-057-035----------------------------------------
------------------------------------------------------------------------------
------------------------------------------------------------------------------


------------------------------------------------------------------------------
------------------------------------------------------------------------------
------------------------------------------------------------------------------
-078-0-000-078-0-000-078-0-000-057-0810---------------------------------------
------------------------------------------------------------------------------
------------------------------------------------------------------------------



solo
------------------------------------------------------------------------------
------------------------------------------------------------------------------
-7---9---10---9-7-5-7-----12--10---9------10-9-7------------------------------
------------------------------------------------------------------------------
------------------------------------------------------------------------------
------------------------------------------------------------------------------



------------------------------------------------------------------------------
------------------------------------------------------------------------------
-7-10-9-7--5-7---5--7----12--10--9---10p9h10p9--------------------------------
------------------------------------------------------------------------------
------------------------------------------------------------------------------
------------------------------------------------------------------------------






4x Riff7 over Riff6 and solo
------------------------------------------------------------------------------
------------------------------------------------------------------------------
------------------------------------------------------------------------------
-7------7------5------5---7------7------5------3------------------------------
-5-5555-5-5555-3-3333-3---5-5555-5-5555-3-3333-1------------------------------
---....---....---....-------....---....---....--------------------------------


------------------------------------------------------------------------------
------------------------------------------------------------------------------
------------------------------------------------------------------------------
-7------7------5------5---7------7------3--5----------------------------------
-5-5555-5-5555-3-3333-3---5-5555-5-5555-1--3----------------------------------
---....---....---....-------....---....---------------------------------------




4x Riff8  (I´m not sure if thats right!)
------------------------------------------------------------------------------
------------------------------------------------------------------------------
------------------------------------------------------------------------------
-4------4--5-4---------------4------4-5-----4-5-4-----------------------------
-2-2222-2--3-2-2222-2-2-2----2-2222-2-3---2-----------------------------------
---....--------....-.-.-.------....-----3-------------------------------------


------------------------------------------------------------------------------
------------------------------------------------------------------------------
------------------------------------------------------------------------------
-4------4--5-4---------------4------4-5-----4-5~~~~---------------------------
-2-2222-2--3-2-2222-2-2-2----2-2222-2-3---2-----------------------------------
---....--------....-.-.-.------....-----3-------------------------------------


2x Riff9                ...Pick each note
------------------------------------------------------------------------------
------------------------------------------------------------------------------
------------------------------------------------------------------------------
------------------------------------------------------------------------------
-5....7....8....7.....5....7....8...----8....10....11....10....8....10....11..
------------------------------------------------------------------------------

I don´t know the acoustic part


then..

4x Riff8
2x Riff9
acoustic part...
2x Riff2
2x Riff3
2x Riff4
6x Riff5
THE BEST SONG OF THE WORLD IS OVER!!!
(i hope its right)

  Visit MetalTabs.com for more metal tablature

bottom separator

Contact Us | Privacy Policy | Disclaimer | Legal Notice
Copyright © 2001-2014 MetalTabs.com. All Rights Reserved.