top separator

Home

Forum

FAQ

Contact Us

Link to Us

MetalTabs.com logo

Bands

0-9

A

B

C

D

E

F

G

H

I

J

K

L

M

N

O

P

Q

R

S

T

U

V

W

X

Y

Z

Cephalic Carnage - "Invertus Indica (The Marijuana Convictions)" Guitar Tab

Plain Text Version
More Cephalic Carnage Tabs

Hits: 3648
Updated: 2003-08-06 15:08:06

By:

shredder


#----------------------------------PLEASE NOTE---------------------------------#
#This file is the author's own work and represents their interpretation of the #
#song. You may only use this file for private study, scholarship, or research. #
#Unless specified otherwise, this is NOT an official tab from the band members.#
#------------------------------------------------------------------------------#

  Visit MetalTabs.com for more metal tablature
  
Band: 	Cephalic Carnage
Album:	Exploiting Dysfunction
Song:	Invertus Indica (The Marijuana Convictions)

Copyright  Relapse Records 2000
Version 1.0 - July 16, 2003

Transcribed By:	Joe Holly
E-mail:		rivers_of_gore666@yahoo.com

.  - palm mute           /  - slide up to
\  - slide down to       ~  - vibrato
h  - hammer on           b  - Bend
p  - pull off            Suffixes for bend
t  - tap                 f  - full bend    h - half bend
ph - pinched harmonic    q  - quarter bend t - tap bend
*  - see comment         ^  - Hold bend    r release bend
x  - Stuccatto           ~  - vibrato bend
,  - slight palm mute    () - ghost note, sustained note
"  - tremolo note        <> - Trill

Tuning: B E A D G B

Riff 1
|---------------------------------------------------------------|
|---------------------------------------------------------------|
|---------------------------------------------------------------|
|-4------------------------------3------------------------------|
|-4------------------------------3------------------------------|
|-2------------------------------1------------------------------|

Riff 2A
|-----------------------------------------------------------------|
|-----------------------------------------------------------------|
|-----------------------------7------------------------------7--|
|---------5---------5--6--------------5---------5--6------|
|-----4----------4------------------4----------4--------------|
|-2----------2------------------2----------2------------------|

|-----------------------------------------------------------------|
|-----------------------------------------------------------------|
|-----------------------------6------------------------------6--|
|-----4---------4------5----------4---------4------5------|
|---------3----------3------------------3----------3----------|
|-1----------1------------------1----------1-----------------|

Riff 2B
|-----------------------------------------------------------------|
|-----------------------------------------------------------------|
|-----------------------------7-------------------------------7---|
|---------5----------5---6---------------5----------5---6-------|
|-----4-----------4-------------------4-----------4---------------|
|-2-----------2-------------------2-----------2-------------------|

|-----------------------------------------------------------------|
|-----------------------------------------------------------------|
|-----------------------------6-------------------------------6---|
|-----4----------4-------5-----------4----------4-------5-------|
|---------3-----------3-------------------3-----------3-----------|
|-1-----------1-------------------1-----------1------------------|

Riff 2A

Riff 3A
|--------------------------------|
|--------------------------------|
|----5---\4----------------------|
|----x---------------------------|
|-2--3---\2---2-1h2p1h2p1h2p1h2-|
|-0-----------0------------------|
  .           .

Riff 3B
|--------------------------------|
|--------------------------------|
|----5---\4----------------------|
|----x---------------------------|
|-2--3---\2---2-2---1-------1---|
|-0-----------0----------1-------|
  .           .

Riff 3C
|--------------------------------|
|--------------------------------|
|----5---\4------3---------------|
|----x-----------x---------------|
|-2--3---\2---2-1---------------|
|-0-----------0------------------|
  .           .

Riff 3B
Riff 3A
Riff 3B

Riff 3D
|--------------------------------|
|--------------------------------|
|----5---\4----------------------|
|----x-----------3---------------|
|-2--3---\2---2-x---------------|
|-0-----------0--1---------------|
  .           .

Riff 3B

Riff 4A
|------------------------------------------------------5ph---|
|------------------------------------------------------------|
|------------------------------------------------------------|
|------------------------------------------------------------|
|-2-------4-------3-------2-------5-------4---------2--------|
|-0-------2-------1-------0-------3-------2---------0--------|
                                                    .
Riff 4B
|------------------------------------------------------------|
|------------------------------------------------------------|
|------------------------------------------------------------|
|------------------------------------------------------------|
|-2-------4-------3-------2-------5-------4---------2-5ph---|
|-0-------2-------1-------0-------3-------2---------0--------|
                                                    .
Riff 4A

Riff 4C
|------------------------------------------------------------|
|------------------------------------------------------------|
|------------------------------------------------------3ph-b-|
|------------------------------------------------------------|
|-2-------4-------3-------2-------5-------4---------2--------|
|-0-------2-------1-------0-------3-------2---------0--------|
                                                    .

Riff 4A

Riff 4D
|------------------------------------------------------------|
|------------------------------------------------------------|
|------------------------------------------------------------|
|------------------------------------------------------------|
|-2-------4-------3-------2-------5-------4----------5ph-5ph-|
|-0-------2-------1-------0-------3-------2--5ph-7ph---------|

Riff 4A

Riff 4E
|-------------------------------------------------|
|-------------------------------------------------|
|-------------------------------------------------|
|---------------------------------5---4-------5---|
|-2-------4-------3-------2---------------4h5-----|
|-0-------2-------1-------0-----------------------|

Riff 5
|---------------------------------|
|---------------------------------|
|---------------------------------|
|---------------------------------|
|-7-7-7-7-7-7-7-7-6-6-6-6-6-6-6-6-|
|---------5-5-5-5---------4-4-4-4-|
  . . . . . . . . . . . . . . . .

Riff 3A
Riff 3B
Riff 3C
Riff 3B
Riff 3A
Riff 3B
Riff 3D
Riff 3B

Riff 6
|----------------------------|
|----------------------------|
|----------------------------|
|-------------------------5--|
|-----------------4--/5---5--|
|-2-2-2-2-3-2-2-2-2--/3---3--|
  . . . . . . . .

|----------------------------|
|----------------------------|
|----------------------------|
|-------------------------5--|
|-----------------4--/5---5--|
|-2-2-2-2-5-4-2-2-2--/3---3--|
  . . . . . . . .

|----------------------------|
|----------------------------|
|----------------------------|
|-------------------------5--|
|-----------------4--/5---5--|
|-2-2-2-2-5-4-2-2-2--/3---3--|
  . . . . . . . .

|-----------------|
|-----------------|
|-----------------|
|-4-4-4---5-5-5---|
|-4-4-4---5-5-5---|
|-2-2-2---3-3-3---|

Riff 7
|-----------------|
|-----------------|
|-----------------|
|-----------------|
|-2-5\4-2-6\5-4/5-|
|-0-3\2-0-4\3-2/3-|

|-----------------|
|-----------------|
|-----------------|
|-----------------|
|-2-5\4-2-6\5-4/5-|
|-0-3\2-0-4\3-2/3-|

|-----------------|
|-----------------|
|-----------------|
|-----------------|
|-2-5\4-2-6\5-4/5-|
|-0-3\2-0-4\3-2/3-|

|---------------------|
|---------------------|
|---------------------|
|---4---------5-------|
|-----4---------5-----|
|-2---------3---------|

Riff 8
|---------------------|
|---------------------|
|---------------------|
|---4-----------4ph~~-|
|-----4-----5---------|
|-2-------------------|

|---------------------|
|---------------------|
|---------------------|
|---4---------5-------|
|-----4---------5-----|
|-2---------3---------|

Riff 9
|---------------------------------|
|---------------------------------|
|-----4-------4-------4-------4---|
|-----4-------4-------4-------4---|
|-2-2-2---2-2-2---2-2-2---2-2-2---|
|-0-0-----0-0-----0-0-----0-0-----|
  . .     . .     . .     . .

|----------------------|
|----------------------|
|----------------------|
|---4--------5-------|
|-----4-5------5-6-|
|-2--------3---------|

|---------------------------------|
|---------------------------------|
|-----6-------6-------6-------6---|
|-----6-------6-------6-------6---|
|-2-2-4---2-2-4---2-2-4---2-2-4---|
|-0-0-----0-0-----0-0-----0-0-----|
  . .     . .     . .     . .

|----------------------|
|----------------------|
|----------------------|
|---4--------5-------|
|-----4-5------5-6-|
|-2--------3---------|

Riff 10
|-------------------------|
|-------------------------|
|----4----------5-------|
|-------4-5-------5-6-|
|-2----------3----------|
|-------------------------|

Riff 9

Riff 11
|---------------------------------|
|---------------------------------|
|-----4-------4-------4-------4---|
|-----4-------4-------4-------4---|
|-2-2-2---2-2-2---2-2-2---2-2-2---|
|-0-0-----0-0-----0-0-----0-0-----|
  . .     . .     . .     . .

|--------------------------------------------------------------|
|--------------------------------------------------------------|
|--------------------------------------------------------------|
|---4--------5-------5*--------------------------------------|
|-----4-5------5-6-3*--------------------------------------|
|-2--------3---------3*--------------------------------------|

	* - let feedback ring

Riff 12
|---------------------------------------------------------|
|---------------------------------------------------------|
|---------------------------------------------------------|
|-3--/4--3--/4--3--/4--3--/4--5--/6--5--/6--5--/6--5--/6--|
|-3--/4--3--/4--3--/4--3--/4--5--/6--5--/6--5--/6--5--/6--|
|-1--/2--1--/2--1--/2--1--/2--3--/4--3--/4--3--/4--3--/4--|

|---------------------------------------------------------|
|---------------------------------------------------------|
|---------------------------------------------------------|
|-3--/4--3--/4--3--/4--3--/4--5--/6--5--/6--4--/5--4--/5--|
|-3--/4--3--/4--3--/4--3--/4--5--/6--5--/6--4--/5--4--/5--|
|-1--/2--1--/2--1--/2--1--/2--3--/4--3--/4--2--/3--2--/3--|

Riff 13
|---------------------------------------------------------|
|---------------------------------------------------------|
|-4--h5--4--h5--4--h5--4--h5--3h--4--3h--4--3h--4--3h--4--|
|---------------------------------------------------------|
|---------------------------------------------------------|
|---------------------------------------------------------|

Riff 12
|-------------------------------------------------|
|-------------------------------------------------|
|-------------------------------------------------|
|-------------------------------------------------|
|-3--4--3--4--3--4--3--4--5--6--5--6--5--6--5--6--|
|-1--2--1--2--1--2--1--2--3--4--3--4--3--4--3--4--|
  .  .  .  .  .  .  .  .  .  .  .  .  .  .  .  .

|-------------------------------------------------|
|-------------------------------------------------|
|-------------------------------------------------|
|-------------------------------------------------|
|-3--4--3--4--3--4--3--4--5--6--5--6--4--5--4--5--|
|-1--2--1--2--1--2--1--2--3--4--3--4--2--3--2--3--|
  .  .  .  .  .  .  .  .  .  .  .  .  .  .  .  .

Ending
|----------------------------|
|----------------------------|
|----------------------------|
|-------------------------5--|
|-----------------4--/5---5--|
|-2-2-2-2-3-2-2-2-2--/3---3--|
  . . . . . . . .

|----------------------------|
|----------------------------|
|----------------------------|
|-------------------------5--|
|-----------------4--/5---5--|
|-2-2-2-2-5-4-2-2-2--/3---3--|
  . . . . . . . .

|----------------------------|
|----------------------------|
|----------------------------|
|-------------------------5--|
|-----------------4--/5---5--|
|-2-2-2-2-5-4-2-2-2--/3---3--|
  . . . . . . . .

|-----------------|
|-----------------|
|-----------------|
|-4-4-4---5-5-5---|
|-4-4-4---5-5-5---|
|-2-2-2---3-3-3---|

  Visit MetalTabs.com for more metal tablature

bottom separator

Contact Us | Privacy Policy | Disclaimer
Copyright © 2001-2014 MetalTabs.com. All Rights Reserved.