top separator

Home

Forum

What's New

Submit a Tab

FAQ

Links

Contact Us

Link to Us

MetalTabs.com logo

Bands

0-9

A

B

C

D

E

F

G

H

I

J

K

L

M

N

O

P

Q

R

S

T

U

V

W

X

Y

Z

Search

What

Where
 

Godkiller - "following the funeral path" Guitar Tab

Plain Text Version
More Godkiller Tabs

Hits: 2859
Rated: 4.00 out of 5 (4 votes)
Updated: 2003-08-06 14:43:34

 

Important note
This tab is available online because we obtained explicit permission from Godkiller or their label.


#----------------------------------PLEASE NOTE---------------------------------#
#This file is the author's own work and represents their interpretation of the #
#song. You may only use this file for private study, scholarship, or research. #
#Unless specified otherwise, this is NOT an official tab from the band members.#
#------------------------------------------------------------------------------#

  Visit MetalTabs.com for more metal tablature
  
Band:  Godkiller
Album: The End Of The World
Song:  Following The Funeral Path

Copyright© 1998 - Wounded Love Records / Avantgarde Music

Tabbed by: Xythen
Email:     xythen@hotmail.com
Version 1.0 July 2003

Tuning: Down 1˝ steps (C# G# E B F# C#).

.      = palm mute
~      = vibrato
r      = let note ring
[x2]   = number of repeated times



Intro/Verse (Guitar 1,2&3 = Keyboard arranged for guitar)


Guitar 1

|---------------------------|
|---------------------------|
|---------------------------|
|-----------------4r--------|
|-----------------5r--------|
|---0r------------7r--------|
|
|
|Guitar 2
|
|---------------------------|
|---5~~-----------7~~-------|
|-7-------------7-----------|
|---------------------------|
|---------------------------|
|---------------------------|
|
|
|Guitar 3
|
|---------------------------|
|---8~7~-8~7~-----8~7~-8~7~-|
|---------------------------|
|---------------------------|
|---------------------------|
|---------------------------|


Guitar 4
                  [x2]                  [x2]   [Final Time]
|---------------------|---------------------|--------------|
|---------------------|---------------------|--------------|
|---------------------|---------------------|--------------|
|---------------------|-4--------4----------|--------------|
|-2--------2----------|-2--2-2-2-2--2-2-2-2-|-2r-----------|
|-0--0-0-0-0--0-0-0-0-|---------------------|-0r-----------|
     . . .    . . . .      . . .    . . . .



Bridge Part (Guitar 1 = Keyboard arranged for guitar)


Guitar 1

|---------------------|
|----0-0----0-0-------|
|-11-----11-----12-14-|
|---------------------|
|---------------------|
|---------------------|
     . .    . .


Guitar 2

|---------------------------------------|
|---------------------------------------|
|---------------------------------------|
|-4---------2----4----4-4-4-4-4-4-4-4-4-|
|-2----5----0----2----2-2-2-2-2-2-2-2-2-|
|------3--------------------------------|



Chorus (Guitar 1 = Keyboard arranged for guitar)


GUitar 1

|-14-----14-----15-17-|
|----0-0----0-0-------|
|-11-----11-----12-14-|
|---------------------|
|---------------------|
|---------------------|
     . .    . .


Guitar2

 [x16]  [x8]  [x8] [x16]  [x8]  [x8]
|-----|-----|-----|-----|-----|-----|
|-----|-----|-----|-----|-----|-----|
|-----|-----|-----|-----|-----|-----|
|--4--|--6--|--3--|--4--|--6--|--7--|
|--2--|--4--|--1--|--2--|--4--|--5--|
|-----|-----|-----|-----|-----|-----|



Then at 3:28 change back to the verse. Play one verse, then finish with:



Outro (Guitar 1&2 = Keyboard arranged for guitar)


Guitar 1

|-10--------------|-13--------------|-8---------------|-12--------------|
|-----------------|-----------------|-----------------|-----------------|
|-7---------------|-10--------------|-5---------------|-9---------------|
|-----------------|-----------------|-----------------|-----------------|
|-----------------|-----------------|-----------------|-----------------|
|-----------------|-----------------|-----------------|-----------------|
|
|
|Guitar 2 (Comes in at the same time as the vocals)
|
|-----------------|-----------------|-----------------|-----------------|
|-----------------|-----------------|-----------------|-----------------|
|-----------------|-----------------|-----------------|-----------------|
|---7-----7-----7-|-----7-----7-----|---2-----2-------|---6-2-----6-2---|
|-5---5-5---5-5---|-5-8---5-8---8-5-|-0---3-0---3-0-3-|-3-----3-3-----3-|
|-----------------|-----------------|-----------------|-----------------|

  Visit MetalTabs.com for more metal tablature

bottom separator

Contact Us | Privacy Policy | Disclaimer | Legal Notice
Copyright © 2001-2014 MetalTabs.com. All Rights Reserved.