top separator

Home

Forum

What's New

Submit a Tab

FAQ

Links

Contact Us

Link to Us

MuSpy.com

MetalTabs.com logo

Bands

0-9

A

B

C

D

E

F

G

H

I

J

K

L

M

N

O

P

Q

R

S

T

U

V

W

X

Y

Z

Search

What

Where
 

Lake of Tears - "Boogie bubble" Guitar Tab

Plain Text Version
More Lake of Tears Tabs

Hits: 4574
Rated: 2.71 out of 5 (7 votes)
Updated: 2001-07-02 16:16:40

 

Important note
This tab is available online because we obtained explicit permission from Lake of Tears or their label.


#----------------------------------PLEASE NOTE---------------------------------#
#This file is the author's own work and represents their interpretation of the #
#song. You may only use this file for private study, scholarship, or research. #
#Unless specified otherwise, this is NOT an official tab from the band members.#
#------------------------------------------------------------------------------#

  Visit MetalTabs.com for more metal tablature
  
Taken with permission from The Crimson Book - http://www.lakeoftears.net

Lake of tears - Boggie Bubble
Transcribed by Thomas Rädel Tuning: D (down)

Guitar intro:

2x
-----------------|
|-----------------|
|-----------------|
|--2\4---4---4--2---0/2---2---0----0----0--2\4---4---4--2---0/2---2---0----0----0-2/4---4---4--2----0/2---2---4/7--5--4-5/7--7--7-5-4-0/2--2---0--0--0
|-------2---2------2------0---0---0----0----------2---2------2------0---0---0----0---------2---2-------2------0---0-----0--0-------5--5------------0---0--0--0
|----------------------|

Maybe 2nd intro(??):     4x
|-------------------------------------------------------------
|-------------------------------------------------------------
|-------------------------------------------------------------
|-4-4-4-4-4-4-4--2--2-2-2-2-2-2-2-2----------------------
|-2-2-2-2-2-2-2--0--0-0-0-0-0-0-0-0---------------------------
|-------------------------------------------------------------

Then:     2x
|-------------------------------------------------------------
|-------------------------------------------------------------
|-------------------------------------------------------------
|-4---4-4-4-4-4--2--2-2-2-2--7--------------------------
|-2---2-2-2-2-2--0--0-0-0-0--5--------------------------
|-------------------------------------------------------------


Main Part:     4x
|-------------------------------------------------------------
|-------------------------------------------------------------
|-------------------------------------------------------------
|-7---4---4-4-4-4-4--2--2-2-2-2-------------------------
|-5---2---2-2-2-2-2--0--0-0-0-0-------------------------
|-------------------------------------------------------------
Start singing: Vague shadows....

Bridge:     4x
|-------------------------------------------------------------
|-------------------------------------------------------------
|-------------------------------------------------------------
|-------------------------------------------------------------
|-7---4---4-4-4-4-4--2--2-2-2-2-----------
|-5---2---2-2-2-2-2--0--0-0-0-0---------------
 Boogie Bubble refrain...


Chorus: 4x
|------------------------------------------------------------|
|------------------------------------------------------------|
|------------------------------------------------------------|
----2\4---4---4--2---0/2---2---0----0----0------------
---------2---2------2------0---0---0----0---------------
------------------------------------------------------------

  Visit MetalTabs.com for more metal tablature

bottom separator

Contact Us | Privacy Policy | Disclaimer | Legal Notice
Copyright © 2001-2014 MetalTabs.com. All Rights Reserved.