top separator

Home

Forum

What's New

Submit a Tab

FAQ

Links

Contact Us

Link to Us

MetalTabs.com logo

Bands

0-9

A

B

C

D

E

F

G

H

I

J

K

L

M

N

O

P

Q

R

S

T

U

V

W

X

Y

Z

Search

What

Where
 

Destruction - "Total Disaster" Guitar Tab

Plain Text Version
More Destruction Tabs

Hits: 6117
Rated: 4.00 out of 5 (2 votes)
Updated: 2003-08-01 11:52:31

 

By:

Kramer

sendpm.gif

email.gif

Important note
This tab is available online because we obtained explicit permission from Destruction or their label.


#----------------------------------PLEASE NOTE---------------------------------#
#This file is the author's own work and represents their interpretation of the #
#song. You may only use this file for private study, scholarship, or research. #
#Unless specified otherwise, this is NOT an official tab from the band members.#
#------------------------------------------------------------------------------#

  Visit MetalTabs.com for more metal tablature
  
Destruction "Total Desaster" from SENTENCE OF DEATH (1984)

Submitted by Kramer
E-mail: Pantera9560@aol.com

Intro- Play E5 chord really hard with whammy bar

Riff 1 8x
D-9----------------9-----7/10-10--
A-7------10-10-----7-----5/8--8---
E---000--8--8---00---000----------

Riff 2 3x
D-5---4-------5---7---9----9------
A-3---2---5---3---5---7----7------
E---------3-------------00---00---

Riff 2 ending
D-5---4-------5---7---4---5---4-----------
A-3---2---5---3---5---2---3---2---5---4---
E---------3-----------------------3---2---

Riff 1 4x

Riff 3 4x
D-9-9-9-9-9-10-10--9-9-9-9--12/10/9---9-9-9-9-9--10-10--7-7-7-7-7-9-9---
A-7-7-7-7-7-8--8---7-7-7-7--10/8//7---7-7-7-7-7--8--8---5-5-5-5-5-7-7---

Riff 1 4x
Riff 3 4x

Riff 4 twice
G---------------------------------------------6--7-------------------------------------
D-4-------5-5--4---------------------5-5-5-5--4--5-----4-------5-5--4-------------------
A-2-2222--3-3--2-222-----------------3-3-3-3-----------2-2222--3-3--2-222---------------
E---------------------2--3--5--3-------------------------------------------2--3--5--3---
            twice                        twice

Riff 5 twice
D-9-9-9-9-5-5-5-5-7-7-7-7-9-9-------2---4------
A-7-7-7-7-3-3-3-3-5-5-5-5-7-7---5---0---2------
E-------------------------------3--------------

Riff 4 twice
Riff 5 8x
Riff 1 8x
Riff 3 4x
Riff 1 4x then play E5 chord really hard at the end

  Visit MetalTabs.com for more metal tablature

bottom separator

Contact Us | Privacy Policy | Disclaimer | Legal Notice
Copyright © 2001-2014 MetalTabs.com. All Rights Reserved.