top separator

Home

Forum

FAQ

Contact Us

Link to Us

MetalTabs.com logo

Bands

0-9

A

B

C

D

E

F

G

H

I

J

K

L

M

N

O

P

Q

R

S

T

U

V

W

X

Y

Z

Dark Tranquillity - "Crimson Winds" Guitar Tab

Plain Text Version
More Dark Tranquillity Tabs

Hits: 4776
Rated: 4.00 out of 5 (3 votes)
Updated: 2003-08-01 11:48:01


#----------------------------------PLEASE NOTE---------------------------------#
#This file is the author's own work and represents their interpretation of the #
#song. You may only use this file for private study, scholarship, or research. #
#Unless specified otherwise, this is NOT an official tab from the band members.#
#------------------------------------------------------------------------------#

  Visit MetalTabs.com for more metal tablature
  
                            DARK TRANQUILLITY : Crimson Winds
                                From the Album Skydancer
                      Version 1.0 - Started June 2003 completed June 2003

Transcribed by: (Matt Sisto) + (standablaze00@hotmail.com)

  . - palm mute                      hb =half bend
  / - slide up                       hr =half bend and release
  \ - slide down
  h - hammer on	                   fb =full bend
  p - pull off                       fr =full bend and release
  ~ - vibrato
(5) - ghost note, sustained note
  x - percussive mute, mute
  t - tap
   - natural harmonic
  ^ - pinch harmonic
  " - tremolo picking

E tuning

NOTE : I have separated the song into 3 parts, simply to make it
       more organized. Parts 1, 2 and 3 for Guitar 1 is followed by
       parts 1, 2 and 3 for guitar two.



Part 1 Guitar 1
|---------------------------------------------------------------|
|---------------------------------------------------------------|
|------------1----------------------------6--6p4-------------------|
|-----2-4------4-2--------------------1-2--------4--7-7p6--4---------|
|---------2--------4-----------------------------------------6\4----|
|--5----------------------------------------------------------------|

|---------------------------------------------------------------|
|---------------------------------------------------------------|
|------------1----------------------------6--6p4-------------|
|-----2-4------4-2--------------------1-2--------4--7-7p6-------|
|---------2--------4-------------------------------------------|
|--5----------------------------------------------------------|

|---------------------------------------------------------------|
|---------------------------------------------------------------|
|--6-4-2--6-4-----1-------------------------------1--------------|
|--------------4---------------6-4---------2-4------4-2-----------|
|----------------------------------6\4---------2--------4------|
|---------------------------------------5------------------------|

|---------------------------------------------------------------|
|---------------------------------------------------------------|
|------6--6p4-----------------------------1--------------------|
|--1-2--------4--7-7p6--4---------2-4-------4-2---------------|
|-------------------------6\4----------2--------4-------------|
|------------------------------5---------------------------------|

|---------------------------------------------------------------|
|---------------------------------------------------------------|
|------6--6p4--------------6-4-2--6-4-----1---------------------|
|--1-2--------4--7-7p6-----------------4-------6-4----------------|
|--------------------------------------------------6\4-------------|
|---------------------------------------------------------------|

Part 2 Guitar 1
|---------------------------------------------------------------|
|---------------2--------------------2---------------------------|
|---------------------------------------------------------------|
|----4444-2h4-4---4p2-----4444-2h4-4---4p2--------------------------|
|---------------------4--------------------4--2-4444-2h4-4-5-4p2----|
|--2--------------------2----------------------------------------4---|

|---------------------------------------------------------------|
|---------------------------------------------------------------|
|---------------------------------------------------------------|
|---------------------------------------------------------------|
|--2-4444-2h4-4-5-4p2-----------------------------------------|
|---------------------4---------------------------------------|

|---------------------------------------------------------------|
|---------------2--------------------2------------------------|
|---------------------------------------------------------------|
|----4444-2h4-4---4p2h4---4444-2h4-4---4p2h4-----------------|
|--------------------------------------------2-4444-2h4-4-5-4p2-2h5--|
|--2--------------------2------------------------------------------|

|---------------------------------------------------------------|
|---------------------------------------------------------------|
|---------------------------------------------------------------|
|---------------------------------------------------------------|
|--2-4444-2h4-4-5-4p2-2h5----------------------------------------|
|---------------------------------------------------------------|

|---------------------------------------------------------------|
|---------------2--------------------2-------------------------|
|---------------------------------------------------------------|
|----4444-2h4-4---4p2h4---4444-2h4-4---4p2h4------------------------|
|--------------------------------------------2-4444-2h4-4-5-4p2-2h5--|
|--2--------------------2--------------------------------------------|

|---------------------------------------------------------------|
|---------------------------------------------------------------|
|---------------------------------------------------------------|
|---------------------------------------------------------------|
|--2-4444-2h4-4-5-4p2-2h5--------------------------------------|
|---------------------------------------------------------------|


|--------------------------------------------------------------------|
|--------------------------------------------------------------------|
|--------------------------------------------------------------------|
|----------44---------------44---------------22---------------22-----|
|------6677--7766-------6677--7766-------4455--5544-------4455--5544--|
|--4444----------77-4444----------77-2222----------55-2222----------55--|

|---------------------------------------------------------------|
|--7777-------------------------------------------------------------|
|------4444666664446666---------------------------------------------|
|----------------------444477777666-------4444-------------------------|
|----------------------------------44554422----222244554422-----------|
|----------------------------------------------------------55554444-----|

|---------------------------------------------------------------|
|---------------2--------------------2----------------------------|
|---------------------------------------------------------------|
|----4444-2h4-4---4p2-----4444-2h4-4---4p2--------------------------|
|---------------------4--------------------4--2-4444-2h4-4-5-4p2------|
|--2--------------------2----------------------------------------4-----|

|---------------------------------------------------------------|
|---------------------------------------------------------------|
|---------------------------------------------------------------|
|---------------------------------------------------------------|
|--2-4444-2h4-4-5-4p2---------------------------------------------|
|---------------------4--------------------------------------------|

|---------------------------------------------------------------|
|---------------------------------------------------------------|
|----------------1---------------------1---------------------------|
|-----4444-2h4-4---4p1-2----4444-2h4-4---4p1-2---------------------|
|-----------------------------------------------------------------|
|--2---------------------2---------------------------------------|

|---------------------------------------------------------------|
|---------------------------------------------------------------|
|---------------------------------------------------------------|
|---------------------------------------------------------------|
|--2-4444-2h4-4-5-4p2-2h5--2-4444-2-play next riff immediately------|
|---------------------------------------------------------------|

Play Twice
|---------------------------------------------------------------|
|---------------------------------------------------------------|
|--------------------------4444-------------------------------------|
|----667766--447766--667766----7766----------------------------------|
|--44------77------44-------------------------------------------------|
|---------------------------------------------------------------|

|---------------------------------------------------------------|
|---------------------------------------------------------------|
|---------------------------------------------------------------|
|----------44---------------44---------------22---------------22---|
|------6677--7766-------6677--7766-------4455--5544-------4455--5544--|
|--4444----------77-4444----------77-2222----------55-2222----------55--|


Part 3 Guitar 1
|--11119977----------771111997766------6699776644------44776677664477669966--|
|----------1111991111------------997799----------775577-------------|
|---------------------------------------------------------------|
|---------------------------------------------------------------|
|---------------------------------------------------------------|
|---------------------------------------------------------------|

|---------------------------------------------------------------|
|---------------2--------------------2----------------------------|
|---------------------------------------------------------------|
|----4444-2h4-4---4p1-2---4444-2h4-4---4p2-1------------------------|
|--------------------------------------------2-4444-2h4-4-5-4p2-2h5--|
|--2--------------------2----------------------------------------|

|---------------------------------------------------------------|
|---------------------------------------------------------------|
|---------------------------------------------------------------|
|---------------------------------------------------------------|
|--2-4444-2h4-4-5-4p2-2h5----------------------------------------|
|---------------------------------------------------------------|

|---------------------------------------------------------------|
|---------------------------------------------------------------|
|------2-1--1-2-1-----2-1--1-2-1-----2-1--1-2-1---------------1------|
|--4-4------------4-4------------2-2------------0-2-4-2-4-2-4---|
|---------------------------------------------------------------|
|---------------------------------------------------------------|


|---------------------------------------------------------------|
|---------------------------------------------------------------|
|---------------------------------------------------------------|
|------2-1--1-2-1-----2-1--1-2-1-----2-1--1-2-1---------------1----------|
|--4-4------------4-4------------2-2------------0-2-4-2-4-2-4---|
|---------------------------------------------------------------|


|---------------------------------------------------------------|
|---------------------------------------------------------------|
|---------------------------------------------------------------|
|------------------------------------------------------2-4--2-------|
|------1------1-------1------1-------1------1------------------2-------|
|--2-2---4--4---4-2-2---4--4---4-0-0---4--4---4--0-2-4------------4----|

|---------------------------------------------------------------|
|---------------------------------------------------------------|
|------------1----------------------------6--6p4-------------------|
|-----2-4------4-2--------------------1-2--------4--7-7p6--4--------|
|---------2--------4-----------------------------------------6\4----|
|--5----------------------------------------------------------------|

|---------------------------------------------------------------|
|---------------------------------------------------------------|
|------------1----------------------------6--6p4-------------------|
|-----2-4------4-2--------------------1-2--------4--7-7p6---------|
|---------2--------4----------------------------------------------------|
|--5----------------------------------------------------------------|

|---------------------------------------------------------------|
|---------------------------------------------------------------|
|--6-4-2--6-4-----1-------------------------------1----------------|
|--------------4---------------6-4---------2-4------4-2-------------|
|----------------------------------6\4---------2--------4--------|
|---------------------------------------5------------------------|


|---------------------------------------------------------------|
|---------------------------------------------------------------|
|---------------------------------------------------------------|
|--4-2-1---4-2---1-----------------------------------------|
|--------4-----4--------------------------------------------------|
|---------------------------------------------------------------|


Play Twice
|---------------------------------------------------------------|
|--9-7-5-------5-9-7-5-4-------4-7-5-4-2-------2-5-4-5-4-2-5-4-7-4-----|
|--------8-6-8-----------6-4-6-----------4-2-4---------------------------|
|---------------------------------------------------------------|
|---------------------------------------------------------------|
|---------------------------------------------------------------|

|--11119977----------771111997766------6699776644------44776677664477669966---|
|----------1111991111------------997799----------775577------|
|---------------------------------------------------------------|
|---------------------------------------------------------------|
|---------------------------------------------------------------|
|---------------------------------------------------------------|

                                              (Last 4 9's artifical harmonics)
|--11119977----------771111997766------6699776644------44776677664477669999-----|
|----------1111991111------------997799----------775577---------|
|---------------------------------------------------------------|
|---------------------------------------------------------------|
|---------------------------------------------------------------|
|---------------------------------------------------------------|

Play next 4 parts under solo
|---------------------------------------------------------------|
|---------------------------------------------------------------|
|---------------------------------------------------------------|
|----8---8---8---8---8---8---8---8--------------------------------------|
|--6---6---6---6---6---6---6---6-----8---8---8---8---8---8---8---8---------|
|----------------------------------6---6---6---6---6---6---6---6--------|

|---------------------------------------------------------------|
|---------------------------------------------------------------|
|---------------------------------------------------------------|
|---------------------------------------------------------------|
|----9---9---9---9---6---6---6---6---8---8---8---8---8---8---8---8----------|
|--7---7---7---7---4---4---4---4---6---6---6---6---6---6---6---6--------|

|---------------------------------------------------------------|
|---------------------------------------------------------------|
|----8---8---8---8---8---8---8---8--------------------------------------|
|------------------------------------8---8---8---8---8---8---8---8------|
|--6---6---6---6---6---6---6---6----------------------------------------|
|----------------------------------6---6---6---6---6---6---6---6--------|


|---------------------------------------------------------------|
|---------------------------------------------------------------|
|---------------------------------------------------------------|
|----9---9---9---9---6---6---6---6---8---8---8---8---8---8---8---8--------|
|-------------------------------------------------------------------|
|--7---7---7---7---4---4---4---4---6---6---6---6---6---6---6---6---------|


Play Twice
|--11hb--9-7-6--4-6-7--4--7-7p6-----------------------------------|
|---------------------------------------------------------------|
|---------------------------------------------------------------|
|---------------------------------------------------------------|
|---------------------------------------------------------------|
|---------------------------------------------------------------|

Play next 3 parts twice together under solo
|---------------------------------------------------------------|
|---------24 notes------------------------24 notes-------------------|
|---------------------------------------------------------------|
|---------------------------------------------------------------|
|--66666666666666666666666644442222111111111111111111111111---------------|
|---------------------------------------------------------------|

|------------------------------------------------------------------------|
|-----------------------------------------------------------------------|
|------------12 notes------------------------16 notes------------------------|
|--------------------------------------------------------------------------|
|-------11112222222222221111------------22221111111111111111----------------------|
|--4444---------------------444444444444-----------------------------------------|

|---------------------------------------------------------------|
|---------------------------------------------------------------|
|---------------------------------------------------------------|
|----------66998888-----------------------------------------------------|
|--99776677-------------------------------------------------------------|
|---------------------------------------------------------------|

Play Twice
|---------------------------------------------------------------|
|---------------------------------------------------------------|
|--------------------------4444-------------------------------------|
|----667766--447766--667766----7766---------------------------------------------------|
|--44------77------44-------------------------------------------------|
|---------------------------------------------------------------|

|---------------------------------------------------------------|
|---------------------------------------------------------------|
|---------------------------------------------------------------|
|----------44---------------44---------------22-----------------2--------|
|------6677--7766-------6677--7766-------4455--5544--------4455---2------------|
|--4444----------77-4444----------77-2222----------55--2222----------------------|


|---------------------------------------------------------------|
|--7777-------------------------------------------------------------|
|------4444666664446666----------------------------------------------|
|----------------------444477777666--------4444-----------------------|
|----------------------------------44554422----222244554422-----------|
|----------------------------------------------------------55554444-----|


|---------------------------------------------------------------|
|---------------------------------------------------------------|
|----------------1----------------------1---------------------------|
|-----4444-2h4-4---4p2-------4444-2h4-4---4p2-------------------------|
|----------------------4----------------------4---------------------|
|--2----------------------2---------------------------------------|

|---------------------------------------------------------------|
|---------------------------------------------------------------|
|---------------------------------------------------------------|
|---------------------------------------------------------------|
|--2-4444-2h4-4-5-4p2----2-4444-2h4-4-5-4p2-------------------------|
|---------------------4---------------------4-----------------------|

|---------------------------------------------------------------|
|---------------------------------------------------------------|
|----------------1---------------------1---------------------------|
|-----4444-2h4-4---4p1-2----4444-2h4-4---4p1-2----------------------|
|-----------------------------------------------------------------|
|--2---------------------2---------------------------------------|

|---------------------------------------------------------------|
|---------------------------------------------------------------|
|---------------------------------------------------------------|
|---------------------------------------4-2-1------------|
|--2-4444-2h4-4-5-4p2-2h5--2-4444-2-4-2-------4-------------------------|
|---------------------------------------------------------------|

Part 1 Guitar 2
|-------------------------------------------------------------------|
|------------------------------------------------------------------|
|--------------1h2-------------------------2--2p1--------1---1------------|
|-----2-4----4----------1-2-1---1-2-1---2---------4--2-4---4-----------------|
|--4------2--------4--4-------4-------4-------------------------------|
|---------------------------------------------------------------|

|---------------------------------------------------------------|
|---------------------------------------------------------------|
|----1-2-1---1----------------------1h2--------------------------------|
|--4-------4---4-2-4-2-----2-4----4----------1-2-1---1-2-1---2----------------|
|-----------------------4------2--------4--4-------4-------4----------|
|---------------------------------------------------------------|

|---------------------------------------------------------------|
|---------------------------------------------------------------|
|--2--2p1--------1---1----1-2-1---1---------------------------------------|
|---------4--2-4---4----4-------4---4-2-4-2-------------------------------|
|---------------------------------------------------------------|
|---------------------------------------------------------------|

|---------------------------------------------------------------|
|---------------------------------------------------------------|
|-------------------------------------------------------------------|
|----2-1---2-1---1---2-1---2-1---1---2-1---2-1---1---2-1---2-1---1---------------|
|--4-----4-----4---2-----2-----2---4-----4-----4---4-----4-----4--------|
|---------------------------------------------------------------|

|---------------------------------------------------------------|
|---------------------------------------------------------------|
|-------------------------------------------------------------------|
|----2-1---2-1---1---2-1---2-1---1---2-1---2-1---1---2-1---2-1---1---------------|
|--4-----4-----4---2-----2-----2---4-----4-----4---4-----4-----4--------|
|---------------------------------------------------------------|

|-------------------------------------------------------------------|
|------------------------------------------------------------------|
|--------------1h2-------------------------2--2p1--------1---1------------|
|-----2-4----4----------1-2-1---1-2-1---2---------4--2-4---4-----------------|
|--4------2--------4--4-------4-------4-------------------------------|
|---------------------------------------------------------------|

|-----------------------|
|-----------------------|
|----1-2-1---1----------|
|--4-------4---4-2-4-2--|
|-----------------------|
|-----------------------|

|---------------------------------------------------------------|
|---------------------------------------------------------------|
|-------------------------------------------------------------------|
|----2-1---2-1---1---2-1---2-1---1---2-1---2-1---1---2-1---2-1---1------|
|--4-----4-----4---2-----2-----2---4-----4-----4---4-----4-----4--------|
|---------------------------------------------------------------|

|---------------------------------------------------------------|
|---------------------------------------------------------------|
|-------------------------------------------------------------------|
|----2-1---2-1---1---2-1---2-1---1---2-1---2-1---1---2-1---2-1---1------|
|--4-----4-----4---2-----2-----2---4-----4-----4---4-----4-----4--------|
|---------------------------------------------------------------|

Part 2 Guitar 2
|---------------------------------------------------------------|
|-------------2------------------2---------------------------------|
|----2222-1-2-------1---2222-1-2-------1------------------------------------|
|---------------2h4----------------2h4-----2222-1-2-4-2--1-------------------|
|----------------------------------------4-------------4--------|
|--2------------------2-------------------------------------------|


|---------------------------------------------------------------|
|---------------------------------2--------------------2-----------------|
|----------------------2222-1h2-2-------1---2222-1h2-2------1---------------|
|----2222-1-2-4-2--1----------------2h4-----------------2h4------------------|
|--4-------------4-------------------------------------------------|
|--------------------2--------------------2-------------------------|


|---------------------------------------------------------------|
|---------------------------------------------------------------|
|---------------1--------------------1-----------------------------|
|----2222-1h2-2---2--1----2222-1h2-2---2--1--------------------------------|
|--4---------------4-----4--------------4--------------------------|
|---------------------------------------------------------------|

|---------------------------------------------------------------|
|---------------2--------------------2-----------------|
|----2222-1h2-2-------1---2222-1h2-2------1---------------|
|-----------------2h4-----------------2h4-------------------------|
|-------------------------------------------------|
|--2--------------------2-------------------------|


|---------------------------------------------------------------|
|---------------------------------------------------------------|
|---------------1---------------------1-----------------------------|
|----2222-1h2-2---2--1-----2222-1h2-2---2--1-------------------------------|
|--4---------------4-----4---------------4--------------------------|
|---------------------------------------------------------------|

|----------------------------------------------------------------------|
|--------------------------------------------------77-------------------|
|--1111----11------1111----11----------4466----4466----4466--6644--------------|
|------2244--22--44----2244----44224444----4444------44----44----77----------|
|--------------44------------44----------------------------------------|
|-----------------------------------------------------------------------|

|---------------------------------------------------------------|
|----------77------779977-------------------77------779977----------|
|----776677--667799------9966666666---776677--667799------9966666666----|
|--99-------------------------------99------------------------------|
|---------------------------------------------------------------|
|---------------------------------------------------------------|

|---------------------------------------------------------------|
|-------------2------------------2---------------------------------|
|----2222-1-2-------1---2222-1-2-------1------------------------------|
|---------------2h4----------------2h4-----2222-1-2-4-2--1-------------|
|----------------------------------------4-------------4--------|
|--2------------------2-------------------------------------------|


|---------------------------------------------------------------|
|-------------------------------2-2-------------------2-2-----------|
|----------------------2222-1h2-----4p2-1----2222-1h2-----4p2-1--------|
|----2222-1-2-4-2--1---------------------------------------------------|
|--4-------------4-------------------------------------------------|
|--------------------2---------------------2-------------------------|


|---------------------------------------------------------------|
|---------------------------------------------------------------|
|-------------1-1-------------------------------------------------|
|----2222-1h2-----4p2-1---2222-1-continued immediately by next riff---|
|--4--------------------4----------------------------------------|
|---------------------------------------------------------------|


|-----------------------------------------------------------------------|
|-----------------------------------------------------------------------|
|------------------------------------------------------------------------|
|----t6t4h6t7p6p4h6---t6t4h6t7p6p4h6-t4t6t4h6t7p6p4h6---t6t4h6t7p6p4h6---|
|--t4---------------t7-------------------------------t7----------------|
|----------------------------------------------------------------------|

|-----------------------------------------------------------------------|
|-----------------------------------------------------------------------|
|------------------------------------------------------------------------|
|----t6t4h6t7p6p4h6---t6t4h6t7p6p4h6-t4t6t4h6t7p6p4h6---t6t4h6t7p6p4h6---|
|--t4---------------t7-------------------------------t7----------------|
|----------------------------------------------------------------------|

|----------------------------------------------------------------------|
|--------------------------------------------------77-------------------|
|--1111----11------1111----11----------4466----4466----4466--6644--------------|
|------2244--22--44----2244----44224444----4444------44----44----77--------|
|--------------44------------44----------------------------------------|
|-----------------------------------------------------------------------|

Part 3 Guitar 2
|---------------------------------------------------------------|
|------------------------16 notes each fret played---------------------|
|---------------------------------------------------------------|
|--6666666666666666444444444444444422222222222222221111111111111111------|
|---------------------------------------------------------------|
|---------------------------------------------------------------|

|---------------------------------------------------------------|
|---------------2--------------------2-------------------------------|
|----2222-1h2-2------1----2222-1h2-2------1-----------------------|
|----------------2h4------------------2h4-------------------------------|
|---------------------------------------------------------------|
|--2-------------------2------------------------------------------|

|---------------------------------------------------------------|
|---------------------------------------------------------------|
|---------------1---------------------1-----------------------------|
|----2222-1h2-2---2--1-----2222-1h2-2---2--1-------------------------|
|--4---------------4-----4---------------4--------------------------|
|---------------------------------------------------------------|

|---------------------------------------------------------------|
|---------------------------------------------------------------|
|------2-1--1-2-1-----2-1--1-2-1-----2-1--1-2-1---------------1-------|
|--4-4------------4-4------------2-2------------0-2-4-2-4-2-4------|
|---------------------------------------------------------------|
|---------------------------------------------------------------|


|--------------------------------------------------------------------|
|-------------------------------------------------------------------|
|-------------------------------------------------------------------|
|------2-1--1-2-1-----2-1--1-2-1-----2-1--1-2-1---------------1---------|
|--4-4------------4-4------------2-2------------0-2-4-2-4-2-4--------|
|---------------------------------------------------------------|



|-------------------------------------------------------------------------|
|-----------------------------2-------------------------------------------|
|------2---2-4-2-1------2-1-4---2-1------2---2-4-2-1-------------------1--|
|--4-4---4----------4-4--------------4-4---4----------0-2-4-2-4--2--4-----|
|---------------------------------------------------------------|
|---------------------------------------------------------------|

|-------------------------------------------------------------------|
|------------------------------------------------------------------|
|--------------1h2-------------------------2--2p1--------1---1-------|
|-----2-4----4----------1-2-1---1-2-1---2---------4--2-4---4-----------|
|--4------2--------4--4-------4-------4-------------------------------|
|---------------------------------------------------------------|

|---------------------------------------------------------------|
|---------------------------------------------------------------|
|----1-2-1---1----------------------1h2--------------------------------|
|--4-------4---4-2-4-2-----2-4----4----------1-2-1---1-2-1---2--------|
|-----------------------4------2--------4--4-------4-------4----------|
|---------------------------------------------------------------|


|--0---0h2-2---2h5-4--------------------------------------------|
|---------------------------------------------------------------|
|---------------------------------------------------------------|
|---------------------------------------------------------------|
|---------------------------------------------------------------|
|---------------------------------------------------------------|

|---------------------------------------------------------------|
|----5-4---5-4---4---5-4---5-4---4---5-4---5-4---4---5-4---5-4---4-----|
|--6-----6-----6---4-----4-----4---6-----6-----6---6-----6-----6------|
|---------------------------------------------------------------|
|---------------------------------------------------------------|
|---------------------------------------------------------------|

|---------------------------------------------------------------|
|----5-4---5-4---4---5-4---5-4---4---5-4---5-4---4--7-5-4---5-4---------|
|--6-----6-----6---4-----4-----4---6-----6-----6----------6-----6-4----|
|-------------------------------------------------------------------|
|--------------------------------------------------------------------|
|--------------------------------------------------------------------|

Play Twice
|---------------------------------------------------------------|
|---------------------------------------------------------------|
|---------------------------------------------------------------|
|--666666666666666644444444444444442222222222222222111122224444-|
|---------------------------------------------------------------|
|---------------------------------------------------------------|

Play Twice
|---------------------------------------------------------------|
|---------------------------------------------------------------|
|---------------------------------------------------------------|
|---------------------------------------------------------------|
|--666666666666666644444444444444442222222222222222111122224444-|
|---------------------------------------------------------------|

|---------------------------------------------------------------|
|--4---2----------------------------------------2---2---------------|
|--------4-3---1-3-4---3-1-------4p1-3----1-3-4---3----------------|
|----------------------------4-2--------------------------------|
|---------------------------------------------------------------|
|---------------------------------------------------------------|

|-----------------6-----------------------------7-6---6-7-9--7-6---|
|--/11---11\9-7-6---9-7-9-7-6h7p6~----6-7-6h7h9-----9--------------|
|-----------------------------------8----------------------------|
|---------------------------------------------------------------|
|---------------------------------------------------------------|
|---------------------------------------------------------------|

|--7-7p6-6---6h7p6h7p6h7p6h7p6--976711979-11qb-9-7-6-11-9-7-9-7------|
|---------------------------------------------------------------|
|---------------------------------------------------------------|
|---------------------------------------------------------------|
|---------------------------------------------------------------|
|---------------------------------------------------------------|

|--6h7p6h7p6h7p6-------------------------------------------6h7p6---6---|
|----------------11-7-9-11-9-7h9p7-6h7p6---------------6-9-------9-----|
|----------------------------------------7------6-7~-7--------------|
|------------------------------------------8-8~--------------------|
|---------------------------------------------------------------|
|---------------------------------------------------------------|

|--9-7-6666777766664444---------------4-6-7-6-4-------------------|
|----------------------66664-4-2-4-6-7----------7-6--7-6--7-6~\----|
|---------------------------------------------------------------|
|---------------------------------------------------------------|
|---------------------------------------------------------------|
|---------------------------------------------------------------|


|-------2h4h6-4-6-7-6h7p6-------------------------9p7p6--------------------|
|--7-6\-------------------9-7-6h7p6---6-9-7-6--7--------9p7p6-9p7p6------------|
|-----------------------------------7-------------------------------10p9p7------|
|--------------------------------------------------------------------------|
|-----------------------------------------------------------------------------|
|---------------------------------------------------------------------------|

|--------9767976797679767-11qb-9-7--6--764674--------------------------|
|--7-6~---------------------------------------6~--7-6-4-6-4-6-4---4\2--|
|---------------------------------------------------------------6-----|
|--------------------------------------------------------------------|
|---------------------------------------------------------------------|
|--------------------------------------------------------------------|

|----------------------------7-11-9-11-9-7h9p7h9p7-6--------------------|
|------------------7-10-9-10--------------------------9-7-6--7h9-6-----|
|----------6-9-7-9--------------------------------------------------|
|--6-9-7-9----------------------------------------------------------|
|---------------------------------------------------------------|
|---------------------------------------------------------------|

|--9p7p6-------------------------------------------------------------|
|--------9p7p6-9p7p6------------------------------------------------------|
|--------------------10p9p7-------------------------------------------|
|---------------------------------------------------------------|
|---------------------------------------------------------------|
|---------------------------------------------------------------|

|--11p4h7p4-11p4h6p4-11p4h7p4-11p4h6p4-11p4h7p4-11p4h6p4-11p4h7p4-11p6h9p6---|
|---------------------------------------------------------------|
|---------------------------------------------------------------|
|---------------------------------------------------------------|
|---------------------------------------------------------------|
|---------------------------------------------------------------|

|-----------------------------------------------------------------6--------|
|--11p4h7p4-11p4h6p4-11p4h7p4-11p4h6p4-11p4h7p4-11p4h6p4-11p4h7/9--------|
|--------------------------------------------------------------------|
|---------------------------------------------------------------------|
|----------------------------------------------------------------------|
|---------------------------------------------------------------------|

                            13 11's then slide down
|--7--7-6----1212121211111111111111111111111111\----------------------|
|---------9-------------------------------------------------------------|
|---------------------------------------------------------------------|
|---------------------------------------------------------------------|
|----------------------------------------------------------------------|
|---------------------------------------------------------------------|


|--t11p9p7p6-t12p11p9p7-t14p12p11p9-12qb\-----------------------------|
|----------------------------------------------------------------------|
|---------------------------------------------------------------------|
|---------------------------------------------------------------------|
|----------------------------------------------------------------------|
|---------------------------------------------------------------------|

|-----------------------------------------------------------------------|
|-----------------------------------------------------------------------|
|------------------------------------------------------------------------|
|----t6t4h6t7p6p4h6---t6t4h6t7p6p4h6-t4t6t4h6t7p6p4h6---t6t4h6t7p6p4h6---|
|--t4---------------t7-------------------------------t7----------------|
|----------------------------------------------------------------------|

|-----------------------------------------------------------------------|
|-----------------------------------------------------------------------|
|------------------------------------------------------------------------|
|----t6t4h6t7p6p4h6---t6t4h6t7p6p4h6-t4t6t4h6t7p6p4h6---t6t4h6t7p6p4h6---|
|--t4---------------t7-------------------------------t7----------------|
|----------------------------------------------------------------------|

|----------------------------------------------------------------------|
|--------------------------------------------------77-------------------|
|--1111----11------1111----11----------4466----4466----4466--------------|
|------2244--22--44----2244----44224444----4444------44----4-------------|
|--------------44------------44----------------------------------------|
|-----------------------------------------------------------------------|

|---------------------------------------------------------------|
|----------77------779977-------------------77------779977----------|
|----776677--667799------9966666666---776677--667799------9966666666--|
|--99-------------------------------99------------------------------|
|---------------------------------------------------------------|
|---------------------------------------------------------------|

|---------------------------------------------------------------|
|---------------2--------------------2-------------------------------|
|----2222-1h2-2------1----2222-1h2-2------1----------------------------|
|----------------2h4------------------2h4-------------------------------|
|---------------------------------------------------------------|
|--2-------------------2------------------------------------------|

|---------------------------------------------------------------|
|---------------------------------------------------------------|
|---------------1---------------------1-----------------------------|
|----2222-1h2-2---2--1-----2222-1h2-2---2--1-----------------------|
|--4---------------4-----4---------------4--------------------------|
|---------------------------------------------------------------|

|---------------------------------------------------------------|
|-------------2-2-------------------2-2-----------------|
|----2222-1h2-----4p2-1----2222-1h2-----4p2-1---------------|
|----------------------------------------------------------|
|---------------------------------------------------|
|--2---------------------2-------------------------|

|---------------------------------------------------------------|
|---------------------------------------------------------------|
|-------------1-1------------------1-1------------------------------|
|----2222-1h2-----4p2-1---2222-1h2-----4-2-1--------------|
|--4--------------------4--------------------4--------------------|
|---------------------------------------------------------------|

  Visit MetalTabs.com for more metal tablature

bottom separator

Contact Us | Privacy Policy | Disclaimer
Copyright © 2001-2014 MetalTabs.com. All Rights Reserved.