top separator

Home

Forum

What's New

Submit a Tab

FAQ

Links

Contact Us

Link to Us

MetalTabs.com logo

Bands

0-9

A

B

C

D

E

F

G

H

I

J

K

L

M

N

O

P

Q

R

S

T

U

V

W

X

Y

Z

Search

What

Where
 

Nargaroth - "Amarok - Zorn des Lammes Part II" Guitar Tab

Plain Text Version
More Nargaroth Tabs

Hits: 9081
Rated: 5.00 out of 5 (2 votes)
Updated: 2003-08-01 11:46:09

 

By:

MetalSchmiddi

sendpm.gif

email.gif

Important note
We did our best to reach Nargaroth and ask for their permission to publish this tab. Unfortunately they did not respond to our requests or we could not find a way to contact them. This tab is available online until Nargaroth tells us to take it down.


#----------------------------------PLEASE NOTE---------------------------------#
#This file is the author's own work and represents their interpretation of the #
#song. You may only use this file for private study, scholarship, or research. #
#Unless specified otherwise, this is NOT an official tab from the band members.#
#------------------------------------------------------------------------------#

  Visit MetalTabs.com for more metal tablature
  
Song: Amarok-Zorn des Lammes Part II
Band: Nargaroth
Album: Amarok

Transcribed by Schmiddi (eternalwinter666@web.de)
Version 1.0   15.07.03

Tuning: Transcribed in C#



(clean)

I-------------------------------------------------
I-------4-----------4-----------8-----------8-----
I-----5---5-------5---5-------9---9-------9---9---
I---5-------5---5-----------9-------9---9---------
I-3-----------3---------3-7-----------7---------7-
I-------------------------------------------------

 -------------------------------------------------
 -------4-----------4-----------8-----------8-----
 -----5---5-------5---5-------9---9-------9---9---
 ---5-------5---5-----------9-------9---9---------
 -3-----------3---------3-7-----------7---------7-
 -------------------------------------------------

 -------------------------------------------------
 -------4-----------4-----------8-----------8-----
 -----5---5-------5---5-------9---9-------9---9---
 ---5-------5---5-----------9-------9---9---------
 -3-----------3---------3-7-----------7---------7-
 -------------------------------------------------

 -------------------------------------------------
 -------4-----------4-----------8-----------8-----
 -----5---5-------5---5-------9---9-------9---9---
 ---5-------5---5-----------9-------9---9---------
 -3-----------3---------3-7-----------7---------7-
 -------------------------------------------------

 (0:33)
 ------------------------------------------------------------
 ----------11---------6-------------------9----------4-------
 -------12----12--------7---7----------10---10---------5-----
 ----12-------------------7---------10-------------5-----5---
 -10-------------10-5-----------5-8------------8-3---------3-
 ------------------------------------------------------------

 (0:42)
 ----------------------------------------------------------
 ----------11-------------6-------------9------------4-----
 -------12----12--------7---7--------10---10-------5---5---
 ----12---------------7-----------10-------------5-------5-
 -10-------------10-5---------5-8------------8-3-----------
 ----------------------------------------------------------

 (0:50)
 -------------------------------------
 -------4-----------4-----------4-----
 -----5---5-------5---5-------5---5---
 ---5-------5---5-------5---5---------
 -3-----------3-----------3---------3-
 -------------------------------------

 (0:57)
 ----------------------------------------------------------------
 -------7-------------9---------------11----------------11-------
 -----8---8--------10---10---------12----12----------12----12----
 ---8-----------10--------------12----------12----12-------------
 -6---------6-8------------8-10----------------10-------------10-
 ----------------------------------------------------------------

 (1:05)
 ----------------------------------------------------------------
 -------7-------------9---------------11----------------11-------
 -----8---8--------10---10---------12----12----------12----12----
 ---8-----------10--------------12----------12----12----------12-
 -6---------6-8------------8-10----------------10----------------
 ----------------------------------------------------------------

 (1:14)
 -------------------------------------------------
 -------4-----------4-----------8-----------8-----
 -----5---5-------5---5-------9---9-------9---9---
 ---5-------5---5-----------9-------9---9---------
 -3-----------3---------3-7-----------7---------7-
 -------------------------------------------------

 (1:22)
 -------------------------------------------------
 -------4-----------4-----------8-----------8-----
 -----5---5-------5---5-------9---9-------9---9---
 ---5-------5---5-----------9-------9---9---------
 -3-----------3---------3-7-----------7---------7-
 -------------------------------------------------

 (1:30)
 -------------------------------------------------
 -------4-----------4-----------8-----------8-----
 -----5---5-------5---5-------9---9-------9---9---
 ---5-------5---5-----------9-------9---9---------
 -3-----------3---------3-7-----------7---------7-
 -------------------------------------------------

 (1:38)
 -------------------------------------------------
 -------4-----------4-----------8-----------8-----
 -----5---5-------5---5-------9---9-------9---9---
 ---5-------5---5-----------9-------9---9---------
 -3-----------3---------3-7-----------7---------7-
 -------------------------------------------------

 (1:47)
 -----------------------------------------------------------
 ----------11---------6--------------9--------------4-------
 -------12----12--------7--------------10----10-------5-----
 ----12-------------------7---7---10------10------5-----5---
 -10-------------10-5-------5---8---------------3---------3-
 -----------------------------------------------------------

 (1:55)
 ----------------------------------------------------------
 ----------11-------------6-------------9------------4-----
 -------12----12--------7---7--------10---10-------5---5---
 ----12---------------7-----------10-------------5-------5-
 -10-------------10-5---------5-8------------8-3-----------
 ----------------------------------------------------------

 (2:04)
 -------------------------------------
 -------4-----------4-----------4-----
 -----5---5-------5---5-------5---5---
 ---5-------5---5-------5---5---------
 -3-----------3-----------3---------3-
 -------------------------------------

 (2:10)
 ----------------------------------------------------------------
 -------7-------------9---------------11----------------11-------
 -----8---8--------10---10---------12----12----------12----12----
 ---8-----------10--------------12----------12----12-------------
 -6---------6-8------------8-10----------------10-------------10-
 ----------------------------------------------------------------

 (2:18)
 ----------------------------------------------------------------
 -------7-------------9---------------11----------------11-------
 -----8---8--------10---10---------12----12----------12----12----
 ---8-----------10--------------12----------12----12-------------
 -6---------6-8------------8-10----------------10-------------10-
 ----------------------------------------------------------------

 (2:26)
 -------------------------------------------------
 -------4-----------4-----------8-----------8-----
 -----5---5-------5---5-------9---9-------9---9---
 ---5-------5---5-----------9-------9---9---------
 -3-----------3---------3-7-----------7---------7-
 -------------------------------------------------

 (2:35)
 -------------------------------------------------
 -------4-----------4-----------8-----------8-----
 -----5---5-------5---5-------9---9-------9---9---
 ---5-------5---5-----------9-------9---9---------
 -3-----------3---------3-7-----------7---------7-
 -------------------------------------------------

 (2:43)
 -------------------------------------------------
 -------4-----------4-----------8-----------8-----
 -----5---5-------5---5-------9---9-------9---9---
 ---5-------5---5-----------9-------9---9---------
 -3-----------3---------3-7-----------7---------7-
 -------------------------------------------------

 (2:51)
 -------------------------------------------------
 -------4-----------4-----------8-----------8-----
 -----5---5-------5---5-------9---9-------9---9---
 ---5-------5---5-----------9-------9---9---------
 -3-----------3---------3-7-----------7---------7-
 -------------------------------------------------

 (3:00)
 -----------------------------------------------------------
 ----------11---------6--------------9------------4---------
 -------12----12--------7--------------10----10-----5-------
 ----12-------------------7---7---10------10----------5---3-
 -10-------------10-5-------5---8---------------3-------3---
 -----------------------------------------------------------

 (3:08)
 ----------------------------------------------------------
 ----------11-------------6-------9------------------4-----
 -------12----12--------7---7-------10-------------5---5---
 ----12---------------7----------------10---10---5-------5-
 -10-------------10-5---------5-8---------8----3-----------
 ----------------------------------------------------------

 (3:17)
 -------------------------------------
 -------4-----------4-----------4-----
 -----5---5-------5---5-------5---5---
 ---5-------5---5-------5---5-------5-
 -3-----------3-----------3-----------
 -------------------------------------

 (3:23)
 -------------------------------------------------
 -------4-----------4-----------8-----------8-----
 -----5---5-------5---5-------9---9-------9---9---
 ---5-------5---5-----------9-------9---9---------
 -3-----------3---------3-7-----------7---------7-
 -------------------------------------------------

 (3:31)
 -------------------------------------------------
 -------4-----------4-----------8-----------8-----
 -----5---5-------5---5-------9---9-------9---9---
 ---5-------5---5-----------9-------9---9---------
 -3-----------3---------3-7-----------7---------7-
 -------------------------------------------------

 (3:39)
 -------------------------------------------------
 -------4-----------4-----------8-----------8-----
 -----5---5-------5---5-------9---9-------9---9---
 ---5-------5---5-----------9-------9---9---------
 -3-----------3---------3-7-----------7---------7-
 -------------------------------------------------

 (3:47)
 -------------------------------------------------
 -------4-----------4-----------8-----------8-----
 -----5---5-------5---5-------9---9-------9---9---
 ---5-------5---5-----------9-------9---9---------
 -3-----------3---------3-7-----------7---------7-
 -------------------------------------------------

 (3:56)
 ----------------------------------------------------------
 ----------11---------6-------------9--------------4-------
 -------12----12--------7-------------10----10-------5-----
 ----12-------------------7---7--10------10------5-----5---
 -10-------------10-5-------5---8--------------3---------3-
 ----------------------------------------------------------

 (4:04)
 ----------------------------------------------------------
 ----------11---------6-----------------9------------4-----
 -------12----12--------7------------10---10-------5---5---
 ----12-------------------7---7---10-------------5-------5-
 -10-------------10-5-------5---8------------8-3-----------
 ----------------------------------------------------------

 (4:12)
 -------------------------------------
 -------4-----------4-----------4-----
 -----5---5-------5---5-------5---5---
 ---5-------5---5-------5---5---------
 -3-----------3-----------3---------3-
 -------------------------------------

 (4:18)
 ----------------------------------------------------------------
 -------7-------------9---------------11----------------11-------
 -----8---8--------10---10---------12----12----------12----12----
 ---8-----------10--------------12----------12----12-------------
 -6---------6-8------------8-10----------------10-------------10-
 ----------------------------------------------------------------

 (4:27)
 ----------------------------------------------------------------
 -------7-------9---------------------11----------------11-------
 -----8---8-------10----10---------12----12----------12----12----
 ---8----------------10---------12----------12----12-------------
 -6---------6-8------------8-10----------------10-------------10-
 ----------------------------------------------------------------

 (4:35)
 -----------------------------------
 -------4-----------4-----------4---
 -----5---5-------5---5-------5---5-
 ---5-------5---5-------5---5-------
 -3-----------3-----------3---------
 -----------------------------------

 (4:41)
 ------------------------------------I
 -------4-----------4---4-6-3-4------I
 -----5---5-------5---5---------5----I
 ---5-------5---5---------------5----I
 -3-----------3-----------------3----I
 ------------------------------------I
  ritardando



(distortion)

tremolo all riffs



Riff 1 x6  (4:57)

I----------------------------------------------------------------------
I----------------------------------------------------------------------
I----------------------------------------------------------------------
I-6666666666666666-88888888-99999999-9999999999999999-8888888888888888-
I-7777777777777777-77777777-77777777-6666666666666666-6666666666666666-
I----------------------------------------------------------------------

 ----------------------------------------------------------------------
 ----------------------------------------------------------------------
 ----------------------------------------------------------------------
 -6666666666666666-88888888-99999999-9999999999999999-8888888888888888-
 -7777777777777777-77777777-77777777-6666666666666666-6666666666666666-
 ----------------------------------------------------------------------


 ----------------------------------------------------
 ----------------------------------------------------
 ----------------------------------------------------
 -8888888888888888-1010101010101010-1111111111111111-
 -9999999999999999--9-9-9-9-9-9-9-9--9-9-9-9-9-9-9-9-
 ----------------------------------------------------

 -------------------------------------------------------------------
 -------------------------------------------------------------------
 -------------------------------------------------------------------
 -11111111111111111111111111111111-10101010101010101010101010101010-
 --8-8-8-8-8-8-8-8-8-8-8-8-8-8-8-8--8-8-8-8-8-8-8-8-8-8-8-8-8-8-8-8-
 -------------------------------------------------------------------

 ----------------------------------------------------
 ----------------------------------------------------
 ----------------------------------------------------
 -8888888888888888-1010101010101010-1111111111111111-
 -9999999999999999--9-9-9-9-9-9-9-9--9-9-9-9-9-9-9-9-
 ----------------------------------------------------

 -------------------------------------------------------------------
 -------------------------------------------------------------------
 -------------------------------------------------------------------
 -11111111111111111111111111111111-10101010101010101010101010101010-
 --8-8-8-8-8-8-8-8-8-8-8-8-8-8-8-8--8-8-8-8-8-8-8-8-8-8-8-8-8-8-8-8-
 -------------------------------------------------------------------


 --------------------------------------------------------------------
 --------------------------------------------------------------------
 --------------------------------------------------------------------
 -10101010101010101010101010101010-1212121212121212-1313131313131313-
 -11111111111111111111111111111111-1111111111111111-1111111111111111-
 --------------------------------------------------------------------

 -------------------------------------------------------------------
 -------------------------------------------------------------------
 -------------------------------------------------------------------
 -13131313131313131313131313131313-12121212121212121212121212121212-
 -10101010101010101010101010101010-10101010101010101010101010101010-
 -------------------------------------------------------------------

 --------------------------------------------------------------------
 --------------------------------------------------------------------
 --------------------------------------------------------------------
 -10101010101010101010101010101010-1212121212121212-1313131313131313-
 -11111111111111111111111111111111-1111111111111111-1111111111111111-
 --------------------------------------------------------------------

 -------------------------------------------------------------------
 -------------------------------------------------------------------
 -------------------------------------------------------------------
 -13131313131313131313131313131313-12121212121212121212121212121212-
 -10101010101010101010101010101010-10101010101010101010101010101010-
 -------------------------------------------------------------------


 --------------------------------------------------------------------
 --------------------------------------------------------------------
 --------------------------------------------------------------------
 -12121212121212121212121212121212-1414141414141414-1515151515151515-
 -13131313131313131313131313131313-1313131313131313-1313131313131313-
 --------------------------------------------------------------------

 -------------------------------------------------------------------
 -------------------------------------------------------------------
 -------------------------------------------------------------------
 -15151515151515151515151515151515-14141414141414141414141414141414-
 -12121212121212121212121212121212-12121212121212121212121212121212-
 -------------------------------------------------------------------

 --------------------------------------------------------------------
 --------------------------------------------------------------------
 --------------------------------------------------------------------
 -12121212121212121212121212121212-1414141414141414-1515151515151515-
 -13131313131313131313131313131313-1313131313131313-1313131313131313-
 --------------------------------------------------------------------

 -------------------------------------------------------------------
 -------------------------------------------------------------------
 -------------------------------------------------------------------
 -15151515151515151515151515151515-14141414141414141414141414141414-
 -12121212121212121212121212121212-12121212121212121212121212121212-
 -------------------------------------------------------------------


 --------------------------------------------------------------------
 --------------------------------------------------------------------
 --------------------------------------------------------------------
 -14141414141414141414141414141414-1616161616161616-1717171717171717-
 -15151515151515151515151515151515-1515151515151515-1515151515151515-
 --------------------------------------------------------------------

 -------------------------------------------------------------------
 -------------------------------------------------------------------
 -------------------------------------------------------------------
 -17171717171717171717171717171717-16161616161616161616161616161616-
 -14141414141414141414141414141414-14141414141414141414141414141414-
 -------------------------------------------------------------------

 --------------------------------------------------------------------
 --------------------------------------------------------------------
 --------------------------------------------------------------------
 -14141414141414141414141414141414-1616161616161616-1717171717171717-
 -15151515151515151515151515151515-1515151515151515-1515151515151515-
 --------------------------------------------------------------------

 ---------------------------------------------------------I
 ---------------------------------------------------------I
 ---------------------------------------------------------I
 -1616161616161616161616161616161616161616161616161616-\--I
 -1414141414141414141414141414141414141414141414141414-\--I
 ---------------------------------------------------------I



Riff 2a x6  (14:34)

I-----------------------------------------------------
I-----------------------------------------------------
I-----------------------------------------------------
I-1010101010101010-131313131313-1010-9999999999999999-
I--7-7-7-7-7-7-7-7-101010101010--7-7-7777777777777777-
I-----------------------------------------------------

 -----------------------------------------------------
 -----------------------------------------------------
 -----------------------------------------------------
 -1010101010101010-131313131313-1010-9999999999999999-
 --7-7-7-7-7-7-7-7-101010101010--7-7-7777777777777777-
 -----------------------------------------------------

 -----------------------------------------------------
 -----------------------------------------------------
 -----------------------------------------------------
 -1010101010101010-131313131313-1010-9999999999999999-
 --7-7-7-7-7-7-7-7-101010101010--7-7-7777777777777777-
 -----------------------------------------------------

 ------------------------------------------------------------------I
 ------------------------------------------------------------------I
 ------------------------------------------------------------------I
 -1010101010101010101010101010-99-12121212121212121212121212121212-I
 --8-8-8-8-8-8-8-8-8-8-8-8-8-8-77-10101010101010101010101010101010-I
 ------------------------------------------------------------------I



Riff 2b x4  (15:31)

I--------------------------------------------------------------
I--------------------------------------------------------------
I--------------------------------------------------------------
I-1010101010101010-131313131313-1010-1010101010101010-99999999-
I--7-7-7-7-7-7-7-7-101010101010--8-8--7-7-7-7-7-7-7-7-77777777-
I--------------------------------------------------------------

 --------------------------------------------------------------
 --------------------------------------------------------------
 --------------------------------------------------------------
 -1010101010101010-131313131313-1010-1010101010101010-99999999-
 --7-7-7-7-7-7-7-7-101010101010--8-8--7-7-7-7-7-7-7-7-77777777-
 --------------------------------------------------------------

 --------------------------------------------------------------
 --------------------------------------------------------------
 --------------------------------------------------------------
 -1010101010101010-131313131313-1010-1010101010101010-99999999-
 --7-7-7-7-7-7-7-7-101010101010--8-8--7-7-7-7-7-7-7-7-77777777-
 --------------------------------------------------------------

 -------------------------------------------------------------I
 -------------------------------------------------------------I
 -------------------------------------------------------------I
 -1010101010101010-99999999-1212121212121212-1010101010101010-I
 --8-8-8-8-8-8-8-8-88888888-1010101010101010-1010101010101010-I
 -------------------------------------------------------------I

Riff 2b end with
I----------------I
I----------------I
I----------------I
I-10--(let ring)-I
I--8-------------I
I----------------I



Riff 3a x2  (16:12)

I-------------------------------------------------------------------
I-------------------------------------------------------------------
I-------------------------------------------------------------------
I-------------------------------------------------------------------
I-11111111111111111111111111111111-10101010101010101010101010101010-
I--8-8-8-8-8-8-8-8-8-8-8-8-8-8-8-8--8-8-8-8-8-8-8-8-8-8-8-8-8-8-8-8-

 -------------------------------------------------------------------I
 -------------------------------------------------------------------I
 -------------------------------------------------------------------I
 -------------------------------------------------------------------I
 -10101010101010101010101010101010-13131313131313131313131313131313-I
 -11111111111111111111111111111111-11111111111111111111111111111111-I



Riff 4a  (16:29)

I---------------------------------------------------
I---------------------------------------------------
I-10101010101010101010101010101010-9999999999999999-
I--7-7-7-7-7-7-7-7-7-7-7-7-7-7-7-7-7777777777777777-
I---------------------------------------------------
I---------------------------------------------------

 -----------------------------------
 -----------------------------------
 -9999999999999999-8888888888888888-
 -6666666666666666-6666666666666666-
 -----------------------------------
 -----------------------------------

 ---------------------------------------------------
 ---------------------------------------------------
 -10101010101010101010101010101010-9999999999999999-
 --7-7-7-7-7-7-7-7-7-7-7-7-7-7-7-7-7777777777777777-
 ---------------------------------------------------
 ---------------------------------------------------

 -------------------------------------------------------------------I
 -------------------------------------------------------------------I
 -12121212121212121212121212121212-11111111111111111111111111111111-I
 --9-9-9-9-9-9-9-9-9-9-9-9-9-9-9-9--9-9-9-9-9-9-9-9-9-9-9-9-9-9-9-9-I
 -------------------------------------------------------------------I
 -------------------------------------------------------------------I



Riff 3b x2 (16:46)

I-------------------------------------------------------------------
I-------------------------------------------------------------------
I-------------------------------------------------------------------
I-------------------------------------------------------------------
I-11111111111111111111111111111111-10101010101010101010101010101010-
I--8-8-8-8-8-8-8-8-8-8-8-8-8-8-8-8--8-8-8-8-8-8-8-8-8-8-8-8-8-8-8-8-

 --------------------------------------------------------------------I
 --------------------------------------------------------------------I
 --------------------------------------------------------------------I
 --------------------------------------------------------------------I
 -10101010101010101010101010101010-131313131313131313131313-10101010-I
 -11111111111111111111111111111111-111111111111111111111111-11111111-I



Riff 4a (17:03)

Riff 3b x6 (17:19)



Riff 4b  (18:09)

I---------------------------------------------------
I---------------------------------------------------
I-10101010101010101010101010101010-9999999999999999-
I--7-7-7-7-7-7-7-7-7-7-7-7-7-7-7-7-7777777777777777-
I---------------------------------------------------
I---------------------------------------------------

 -----------------------------------
 -----------------------------------
 -9999999999999999-8888888888888888-
 -6666666666666666-6666666666666666-
 -----------------------------------
 -----------------------------------

 ------------------------------------------------------------
 ------------------------------------------------------------
 -10101010101010101010101010101010-99999999-1010101010101010-
 --7-7-7-7-7-7-7-7-7-7-7-7-7-7-7-7-77777777--7-7-7-7-7-7-7-7-
 ------------------------------------------------------------
 ------------------------------------------------------------

 --------------------------------------------------------------------I
 --------------------------------------------------------------------I
 -12121212121212121212121212121212-111111111111111111111111-12121212-I
 --9-9-9-9-9-9-9-9-9-9-9-9-9-9-9-9--9-9-9-9-9-9-9-9-9-9-9-9--9-9-9-9-I
 --------------------------------------------------------------------I
 --------------------------------------------------------------------I



Riff 3b x3 (18:26)

Riff 3a (18:51)



Riff 4c (18:59)

I---------------------------------------------------
I---------------------------------------------------
I-10101010101010101010101010101010-9999999999999999-
I--7-7-7-7-7-7-7-7-7-7-7-7-7-7-7-7-7777777777777777-
I---------------------------------------------------
I---------------------------------------------------

 -----------------------------------
 -----------------------------------
 -9999999999999999-8888888888888888-
 -6666666666666666-6666666666666666-
 -----------------------------------
 -----------------------------------

 ---------------------------------------------------------
 ---------------------------------------------------------
 -10101010101010101010101010101010-99999999-10101010-9999-
 --7-7-7-7-7-7-7-7-7-7-7-7-7-7-7-7-77777777--7-7-7-7-7777-
 ---------------------------------------------------------
 ---------------------------------------------------------

 ---------------------------------------------------------------------I
 ---------------------------------------------------------------------I
 -12121212121212121212121212121212-1111111111111111-12121212-11111111-I
 --9-9-9-9-9-9-9-9-9-9-9-9-9-9-9-9--9-9-9-9-9-9-9-9--9-9-9-9--9-9-9-9-I
 ---------------------------------------------------------------------I
 ---------------------------------------------------------------------I



Riff 3b x3 (19:16)

Riff 3a (19:41)

Riff 4c x2 (19:49)

Riff 3b (20:23)



Riff 3c  (20:31)

I---------------------------------------------------------------------
I---------------------------------------------------------------------
I---------------------------------------------------------------------
I---------------------------------------------------------------------
I-11111111111111111111111111111111-1010101010101010-11111111-10101010-
I--8-8-8-8-8-8-8-8-8-8-8-8-8-8-8-8--8-8-8-8-8-8-8-8--8-8-8-8--8-8-8-8-

 --------------------------------------------------------------------I
 --------------------------------------------------------------------I
 --------------------------------------------------------------------I
 --------------------------------------------------------------------I
 -10101010101010101010101010101010-131313131313131313131313-10101010-I
 -11111111111111111111111111111111-111111111111111111111111-11111111-I



Riff 3d (20:40)

I---------------------------------------------------------------------
I---------------------------------------------------------------------
I---------------------------------------------------------------------
I---------------------------------------------------------------------
I-11111111111111111111111111111111-1010101010101010-11111111-10101010-
I--8-8-8-8-8-8-8-8-8-8-8-8-8-8-8-8--8-8-8-8-8-8-8-8--8-8-8-8--8-8-8-8-

 ---------------------------------------------------------------------I
 ---------------------------------------------------------------------I
 ---------------------------------------------------------------------I
 ---------------------------------------------------------------------I
 -10101010101010101010101010101010-1313131313131313-10101010-13131313-I
 -11111111111111111111111111111111-1111111111111111-11111111-11111111-I



Riff 3e (20:48)

I-------------------------------------------------------------------
I-------------------------------------------------------------------
I-------------------------------------------------------------------
I-------------------------------------------------------------------
I-11111111111111111111111111111111-10101010101010101010101010101010-
I--8-8-8-8-8-8-8-8-8-8-8-8-8-8-8-8--8-8-8-8-8-8-8-8-8-8-8-8-8-8-8-8-

 ---------------------------------------------------------------------I
 ---------------------------------------------------------------------I
 ---------------------------------------------------------------------I
 ---------------------------------------------------------------------I
 -10101010101010101010101010101010-1313131313131313-10101010-13131313-I
 -11111111111111111111111111111111-1111111111111111-11111111-11111111-I



Riff 3c (20:57)

Riff 3b x4 (21:05)



Riff 3f (21:38)

I---------------------------------------------------------------------
I---------------------------------------------------------------------
I---------------------------------------------------------------------
I---------------------------------------------------------------------
I-11111111111111111111111111111111-1010101010101010-11111111-10101010-
I--8-8-8-8-8-8-8-8-8-8-8-8-8-8-8-8--8-8-8-8-8-8-8-8--8-8-8-8--8-8-8-8-

 -----------------------------------------------------------------------I
 -----------------------------------------------------------------------I
 -----------------------------------------------------------------------I
 -----------------------------------------------------------------------I
 -1010101010101010-13131313-10101010-1313131313131313-10101010-13131313-I
 -1111111111111111-11111111-11111111-1111111111111111-11111111-11111111-I



Riff 3b (21:47) till end

  Visit MetalTabs.com for more metal tablature

bottom separator

Contact Us | Privacy Policy | Disclaimer | Legal Notice
Copyright © 2001-2014 MetalTabs.com. All Rights Reserved.