top separator

Home

Forum

What's New

Submit a Tab

FAQ

Links

Contact Us

Link to Us

MuSpy.com

MetalTabs.com logo

Bands

0-9

A

B

C

D

E

F

G

H

I

J

K

L

M

N

O

P

Q

R

S

T

U

V

W

X

Y

Z

Search

What

Where
 

Darkthrone - "Under A Funeral Moon" Guitar Tab

Plain Text Version
More Darkthrone Tabs

Hits: 12429
Rated: 4.17 out of 5 (18 votes)
Updated: 2003-08-01 11:35:41

 

Important note
This tab is available online because we obtained explicit permission from Darkthrone or their label.


#----------------------------------PLEASE NOTE---------------------------------#
#This file is the author's own work and represents their interpretation of the #
#song. You may only use this file for private study, scholarship, or research. #
#Unless specified otherwise, this is NOT an official tab from the band members.#
#------------------------------------------------------------------------------#

  Visit MetalTabs.com for more metal tablature
  
Band:  Darkthrone
Album: Under A Funeral Moon
Song:  Under A Funeral Moon


Transcribed By: (Benjamin Bjorland) on date: (12.7.2003)
Email:          (Homunculus@psykopat.com)


.  - palm mute           /  - slide up to
\  - slide down to       ~  - vibrato
h  - hammer on           b  - Bend
p  - pull off            Suffixes for bend
t  - tap                 f  - full bend    h - half bend
ph - pinched harmonic    q  - quarter bend t - tap bend
*  - see comment         ^  - Hold bend    r release bend
x  - Stuccatto           ~  - vibrato bend
,  - slight palm mute    () - ghost note, sustained note
"  - tremolo note        <> - Trill

1 Riff
|------------------------------------------------------------------------|
|------------------------------------------------------------------------|
|-----------88888888-99999999-88888888-----------------------------------|
|--22222222-88888888-99999999-88888888-----------------------------------|
|--22222222-66666666-77777777-66666666-----------------------------------|
|--00000000--------------------------------------------------------------|

2 Riff
|2x--------------|4x-------|4x-------------------------------------------|
|----------------|---------|---------------------------------------------|
|--4-4-4-3/4\3---|-4-4-4-3-|---------------------------------------------|
|--4-4-4-3/4\3---|-4-4-4-3-|--5-5-5-4------------------------------------|
|--2-2-2-1/2\1---|-2-2-2-1-|--5-5-5-4------------------------------------|
|----------------|---------|--3-3-3-2------------------------------------|

3 Riff
|------------------------------------------------------------------------|
|------------------------------------------------------------------------|
|------------------------------------------------------------------------|
|-7h8p7--------7h8p7----6h7p6----7h8p7---------7h8p7----5-9-8h9p8--|
|-------0000000-------000-------000-------00000000-------000-------------|
|------------------------------------------------------------------------|

4 Riff
|4X-------------------------------|6X------------------------------------|
|---------------------------------|--------------------------------------|
|---------------------------------|-------6-6--6-55-5-5--5-33-3-3--------|
|--2-2--6-6--6-55-5-5--5-33-3-3---|--2-2--6-6--6-55-5-5--5-33-3-3--------|
|--2-2--6-6--6-55-5-5--5-33-3-3---|--2-2--4-4--4-33-3-3--3-11-1-1--------|
|--0-0--4-4--4-33-3-3--3-11-1-1---|--0-0---------------------------------|

5 Riff
|------------------------------------------------------------------------|
|------------------------------------------------------------------------|
|------------------------------------------------------------------------|
|--2-2--3-3--2-2--3-2-5-----2-2--3-3--2-2-2--3---------------------------|
|--2-2--3-3--2-2--3-2-5-----2-2--3-3--2-2-2--3---------------------------|
|--0-0--1-1--0-0--1-0-3-----0-0--1-1--0-0-0--1---------------------------|

6 Riff (last part)
|1x------------|3x------------------------------------------|------------|
|--------------|--------------------------------------------|------------|
|--------------|--33333333---44444444---44444444------------|-4/5\4------|
|--5--4--8--9--|--33333333---44444444---44444444---55555555-|-4/5\4------|
|--5--4--8--9--|--11111111---22222222---22222222---55555555-|-2/3\2------|
|--3--2--6--7--|-----------------------------------33333333-|------------|


Play in this order:
                    Riff 1 - 6x
                    Riff 2 - 1x
                    Riff 3 - 4x
                    Riff 1 - 6x
                    Riff 2 - 1x
                    Riff 3 - 4x
                    Riff 4 - 1x
                    Riff 5 - 4x
                    Riff 1 - 6x

  Visit MetalTabs.com for more metal tablature

bottom separator

Contact Us | Privacy Policy | Disclaimer | Legal Notice
Copyright © 2001-2014 MetalTabs.com. All Rights Reserved.