top separator

Home

Forum

What's New

Submit a Tab

FAQ

Links

Contact Us

Link to Us

MetalTabs.com logo

Bands

0-9

A

B

C

D

E

F

G

H

I

J

K

L

M

N

O

P

Q

R

S

T

U

V

W

X

Y

Z

Search

What

Where
 

Mithotyn - "Under the Banner" Guitar Tab

Plain Text Version
More Mithotyn Tabs

Hits: 3272
Rated: 2.50 out of 5 (4 votes)
Updated: 2003-08-01 11:09:51

 

Important note
This tab is available online because we obtained explicit permission from Mithotyn or their label.


#----------------------------------PLEASE NOTE---------------------------------#
#This file is the author's own work and represents their interpretation of the #
#song. You may only use this file for private study, scholarship, or research. #
#Unless specified otherwise, this is NOT an official tab from the band members.#
#------------------------------------------------------------------------------#

  Visit MetalTabs.com for more metal tablature
  
Mithotyn
King of the Distant Forest
Under the Banner

Tabbed By Steven Lewis

Tuning: D G C F A D (down one full step)

i dont have the whole song so id appreciate
it if anyone who figures the whole thing out
wold send it to me at SnarfOn6Strings@yahoo.com

Now that thats out of the way, on to the song!


Litsen to the song for timing

  INTRO

  Guitar 1
|-----0-0h2h3-0h2h3--------------------------------------------------------------------|
|---------------------0-4-7---0-5-7-8--10-8-7-5-8--10-8-7-5-12--13-12-10-8-10--7-3-5-7-|
|--------------------------------------------------------------------------------------|
|--------------------------------------------------------------------------------------|
|--------------------------------------------------------------------------------------|
|--------------------------------------------------------------------------------------|
|                                                                                      |
|                                                                                      |
| Guitar 2                                                                             |
|--------------------------------------------------------------------------------------|
|--------------------------------------------------------------------------------------|
|-9---------------------------------9-----------------------12-------------------------|
|-9-----------------9-------9-------9-----------------------12-------------12----------|
|-7-----------------9-------7-------7-----------------------10-------------12----------|
|-------------------7-------7----------------------------------------------10----------|
                                    Tremelo Picking''''''''''''''''''''''''''''''''''''

  INTRO CONTINUED

  Guitar 1
|-------------------------------------|
|-8--10-8-7-5-7--3-0--1--0------------|
|--------------------------2--4p2p0---|
|-----------------------------------4-|
|-------------------------------------|
|-------------------------------------|
|                                     |
|                                     |
| Guitar 2                            |
|-------------------------------------|
|-------------------------------------|
|-9-----------------------------------|
|-9-----------9----------7-5--4-------|
|-7-----------9----------7-5--4-------|
|-------------7----------5-3--2-------|
  Tremelo Picking'''''''''''''''''''''

  VERSE
  Im not too sure about this part

  Guitar 1 & 2
|-------------------------------------------------------------------------|
|-------------------------------------------------------------------------|
|-------------------------------------------------------------------4-5-4-|
|-5555555544444444555555555h7h9-5h7h9-5555555544444444222222222-4-5-------|
|-------------------------------------------------------------------------|
|-------------------------------------------------------------------------|

|----------------------------------------------------------------|
|----------------------------------------------------------------|
|--------------------------------------5--4-2------2-4--2--------|
|-5555555544444444555555555h7h9-5h7h9---------4--5--------4-5--4-|
|----------------------------------------------------------------|
|----------------------------------------------------------------|


Thats all i've been able to figure out, but i hope this helps some of you

  Visit MetalTabs.com for more metal tablature

bottom separator

Contact Us | Privacy Policy | Disclaimer | Legal Notice
Copyright © 2001-2014 MetalTabs.com. All Rights Reserved.