top separator

Home

Forum

What's New

Submit a Tab

FAQ

Links

Contact Us

Link to Us

MuSpy.com

MetalTabs.com logo

Bands

0-9

A

B

C

D

E

F

G

H

I

J

K

L

M

N

O

P

Q

R

S

T

U

V

W

X

Y

Z

Search

What

Where
 

Twin Obscenity - "Tribute to Mortality" Guitar Tab

Plain Text Version
More Twin Obscenity Tabs

Hits: 2773
Rated: 5.00 out of 5 (2 votes)
Updated: 2003-08-01 11:08:21

 

Important note
We did our best to reach Twin Obscenity and ask for their permission to publish this tab. Unfortunately they did not respond to our requests or we could not find a way to contact them. This tab is available online until Twin Obscenity tells us to take it down.


#----------------------------------PLEASE NOTE---------------------------------#
#This file is the author's own work and represents their interpretation of the #
#song. You may only use this file for private study, scholarship, or research. #
#Unless specified otherwise, this is NOT an official tab from the band members.#
#------------------------------------------------------------------------------#

  Visit MetalTabs.com for more metal tablature
  
Band: Twin Obscentiy
Song: Tribute to Mortality
Album: Where Light Touches None


Transcribed by: The Dillonator
Email: noseall@hotmail.com

.  -  palm mute
	\  -  slide down
	h  -  hammer
	p  -  pull off
	/  -  slide up
	~  -  vibrato
	b  -  bend
	"  -  tremolo pick

Tuning E (E A D G B E)


Gtr I                                          Riff A
|---------------------------------------------------|
|---------------------------------------------------|
|---------------------------------------------------|
|---------------------------------------------------|
|---5-6-5-4-5-4-3-4--222-222-222-222----------------|
|---3-4-3-2-3-2-1-2--000-000-000-000----------------|
    . . . . . . . .  ... ... ... ...


Gtr I and II on fourth time                    Riff B
|---------------------------------------------------|
|---------------------------------------------------|
|-----------------------------5"--------------------|
|-----------------------4"-2"-----------------------|
|---5-6-5-4-5-4-3-4--3"-----------------------------|
|---3-4-3-2-3-2-1-2---------------------------------|
    . . . . . . . .


Gtr I and II                                   Riff C
|---------------------------------------------------|
|---------------------------------------------------|
|-------------3-------------------------------------|
|-------------3-------------------------------------|
|---2-33-2-33-1-2-3-2-3-----------------------------|
|---0-11-0-11---0-1-0-1-----------------------------|
      ..   ..     . .

Gtr I and II                                   Riff D
|---------------------------------------------------|
|---------------------------------------------------|
|---------------------------------------------------|
|---------------------------------------------------|
|---222-22-222-222----------------------------------|
|---000-00-000-000--444-222-444-111-----------------|
    ... .. ... ...  ... ... ... ...

Gtr I and II                                   Riff E
|---------------------------------------------------|
|---------------------------------------------------|
|---------------------------------------------------|
|---------------------------------------------------|
|---222-22-222-222----------------------------------|
|---000-00-000-000--444-222-444--7b-----------------|
    ... .. ... ...  ... ... ...


Gtr I and II                                   Riff F
|---------------------------------------------------|
|---------------------------------------------------|
|---------------------------------------------------|
|----------------------4"-2"-4"---------------------|
|---222-22-222-222--3"------------------------------|
|---000-00-000-000----------------------------------|
    ... .. ... ...


Gtr I and II                                   Riff G
|---------------------------------------------------|
|----------------------6"-4"-3"---------------------|
|-------------------3"------------------------------|
|---------------------------------------------------|
|---222-22-222-222----------------------------------|
|---000-00-000-000----------------------------------|
    ... .. ... ...
Not sure about this riff

Gtr I                                          Riff H
|---------------------------------------------------|
|------6-0-3----6-0-3-5-----------------------------|
|---------------------------------------------------|
|---------------------------------------------------|
|---22-------22-------------------------------------|
|---00-------00-------------------------------------|
    ..       ..

Gtr I                                          Riff I
|---------------------------------------------------|
|---------------------------------------------------|
|---3-----------------------------------------------|
|---3-----------------------------------------------|
|---1-2-3-2-----------------------------------------|
|-----0-1-0-----------------------------------------|


Gtr II                                   Under Riff I
|---------------------------------------------------|
|---0-3-5-6-----------------------------------------|
|---------------------------------------------------|
|---------------------------------------------------|
|---------------------------------------------------|
|---------------------------------------------------|


If you find any corrections please contact me.

  Visit MetalTabs.com for more metal tablature

bottom separator

Contact Us | Privacy Policy | Disclaimer | Legal Notice
Copyright © 2001-2014 MetalTabs.com. All Rights Reserved.