top separator

Home

Forum

FAQ

Contact Us

Link to Us

MetalTabs.com logo

Bands

0-9

A

B

C

D

E

F

G

H

I

J

K

L

M

N

O

P

Q

R

S

T

U

V

W

X

Y

Z

Amorphis - "Drowned Maid" Bass Tab

Plain Text Version
More Amorphis Tabs

Hits: 2684
Rated: 4.17 out of 5 (6 votes)
Updated: 2003-08-01 10:57:50

By:


#----------------------------------PLEASE NOTE---------------------------------#
#This file is the author's own work and represents their interpretation of the #
#song. You may only use this file for private study, scholarship, or research. #
#Unless specified otherwise, this is NOT an official tab from the band members.#
#------------------------------------------------------------------------------#

  Visit MetalTabs.com for more metal tablature
  
Band:  (AMORPHIS)
Album: (TALES FROM THE THOUSAND LAKES)
Song:  (DROWNED MAID)

Copyright (c)  (RELAPSE RECORDS) (1995)
Version 1.0 - (JUly-06-2003)

Transcribed By: (JUAN DIAZ)
Email:          (TUONELA666@HOTMAIL.COM)

Tunning

RIFF A                                                                                      4X
|--------------------------------------------------------------------------------------------|
|--------------------------------------------------------------------------------------------|
|-1-1-1-1-1-1-1-1-1-1-1-1--------------------------------------------------------3---------3-|
|-------------------------4-4-4-4-4-4-4-4-4-4-4-4-2-2-2-2-2-2-2-2-2-2-2-2-1-1-1--1--1-1-1--1-|

RIFF B                                                          4X
|----------------------------------------------------------------|
|----------------------------------------------------------------|
|-4--4-4--4--4-4----------------------------------2--2-2--2--2-2-|
|-----------------5--5-5--5--5-5--4--4-4--4--4-4-----------------|

RIFF C             6X
|-------------------|
|-8~---4~---4~---6~-|
|-6~---2~---4~---6~-|
|-------------------|

RIFF D                           4X
|---------------------------------|
|---------------------------------|
|-----------------3-3-3-3-2-2-----|
|-5-5-5-5-1-1-1-1-------------1-1-|

RIFF E                      1X
|----------------------------|
|-8~---8~-----x-8~-----------|
|-6~---6~-----x-6~---6-6-6-6-|
|----------------------------|

RIFF F              8X |-5 & 10 TIMES-|
|----------------------|----------------|
|----------------------|----------------|
|-7--6--9--6--6-6-6-6--|-6-6--7--6-6--9-|
|----------------------|----------------|

RIFF D  4X
RIFF F  8X

RIFF G                        2X
|-------------------------------|
|--------7~---6~-----2~---5~----|
|-4~-----5~---4~-----0~---3~----|
|-2~----------------------------|

RIFF H                                   2X
|-----------------------------------------|
|-----------------------------------------|
|------------5~--4~-4-4-4---0~-0-0-3~-3-3-|
|-2~-2-2-2--------------------------------|

RIFF I                                       4X
|---------------------------------------------|
|-----------------4~---3--------------6~--9~~-|
|-6--6-6-6-6-6-6--2~---1--1-1-1-1-1-1-4~--7~~-|
|-----------------------------------------0---|

RIFF F  8X

END
|-------|
|-2-4-2-|
|-0-2-0-|
|-------|

  Visit MetalTabs.com for more metal tablature

bottom separator

Contact Us | Privacy Policy | Disclaimer
Copyright © 2001-2014 MetalTabs.com. All Rights Reserved.