top separator

Home

Forum

FAQ

Contact Us

Link to Us

MetalTabs.com logo

Bands

0-9

A

B

C

D

E

F

G

H

I

J

K

L

M

N

O

P

Q

R

S

T

U

V

W

X

Y

Z

For My Pain - "Autumn Harmony" Guitar Tab

Plain Text Version
More For My Pain Tabs

Hits: 7629
Rated: 4.29 out of 5 (7 votes)
Updated: 2003-07-31 16:21:11


#----------------------------------PLEASE NOTE---------------------------------#
#This file is the author's own work and represents their interpretation of the #
#song. You may only use this file for private study, scholarship, or research. #
#Unless specified otherwise, this is NOT an official tab from the band members.#
#------------------------------------------------------------------------------#

  Visit MetalTabs.com for more metal tablature
  
Author/Artist: For My Pain
Title: Autumn Harmony
Album: Fallen
Tabbed by: Peter Culka
Email: neosk@seznam.cz

-------------------------------------------------------------------------------
Tabber's comment:
If you find any mistakes, please send me the correctures. Thanx and enjoy :)
Lyrics taken from www.formypain.com
For My Pain probbably use D# tuning, this tab is for E tuning.
-------------------------------------------------------------------------------

!!! Standard E tuning (EADGBe) !!!

Explanation:
()    - let ring
/     - slide up
\     - slide down
pm .  - palm mute the tone above
x^y   - half bend from x to y
x^y^x - full bend from x to y and back to x
~     - vibrato
|*-*|
|---| - play this part twice
|*-*|


Intro (pt 1):

  Gtr1:
   Cm            G
e|---------------------------|-------------------------|
B|-----4---3-----------------|---------------0-0-1-3-0-|
G|-----------5-------5-3-----|-------------0-----------|
D|---5---------5---------6-5-|-5---5-6-5\0-------------|
A|-3-----3---------6---------|---6---------------------|
E|---------------4-----------|-------------------------|
 |                                                     |
 |Gtr2:                    I'm not sure with the slides|
e|---------------------------|-------------------------|
B|---------------------------|-------------------------|
G|---------------------------|-------------------------|
D|---------------------------|-------------------------|
A|---------------------------|-------------------------|
E|---------------------------|----------3/5------------|

  Gtr1:
   Cm            G
e|---------------------------|-------------------------|
B|-----4---3-----------------|---------------0-0-1-3-0-|
G|-----------5-------5-3-----|-------------0-----------|
D|---5---------5---------6-5-|-5---5-6-5\0-------------|
A|-3-----3---------6---------|---6---------------------|
E|---------------4-----------|-------------------------|
 |                                                     |
 |Gtr2:                                                |
e|---------------------------|-------------------------|
B|---------------------------|-------------------------|
G|---------------------------|------------(3)----------|
D|---------------------------|(5)---------(3)----------|
A|---------------------------|(6)---------(1)----------|
E|---------------------------|(3)----------------------|
                              Here comes in GTR2 distorted
                              let ring the chords.
                              (I'm not sure with that 3-6-5 Chord, maybe it's 3-5-5)


Intro (pt 2):

  Gtr1:
   Cm            G
e|---------------------------|-------------------------|
B|-----4---3-----------------|---------------0-0-1-3-0-|
G|-----------5-------5-3-----|-------------0-----------|
D|---5---------5---------6-5-|-5---5-6-5\0-------------|
A|-3-----3---------6---------|---6---------------------|
E|---------------4-----------|-------------------------|
 |                                                     |   Repeat this 2x
 |Gtr2:                    i'm not sure with the slides|
e|---------------------------|-------------------------|
B|---------------------------|-------------------------|
G|(5)------------------------|-------------(3)---------|
D|(5)------------(6)---------|(5)----------(3)---------|
A|(3)------------(6)---------|(5)----------(1)---------|
E|---------------(4)---------|(3)----------------------|


Riff1:

1st time:              The touch of fall has reached              us again
2nd time:              Accept our fate, donít                    say anything
e|----------|---------|---------|----------|---------|----------|---------|----------|
B|----------|---------|---------|----------|---------|----------|---------|----------|
G|-(5)--5-5-|-5-5-5-5-|-5-5-5-5-|-5-5-5-55-|---------|----------|---------|----------|
D|-(5)--5-5-|-5-5-5-5-|-5-5-5-5-|-5-5-5-55-|-5-5-5-5-|-5-5-5-55-|-5-5-5-5-|-5-5-5-55-|
A|-(3)--3-3-|-3-3-3-3-|-3-3-3-3-|-3-3-3-33-|-5-5-5-5-|-5-5-5-55-|-5-5-5-5-|-5-5-5-55-|
E|----------|---------|---------|----------|-3-3-3-3-|-3-3-3-33-|-3-3-3-3-|-3-3-3-33-|
pm      * *   * * * *   * * * *   * * * **   * * * *   * * * **   * * * *   * * * **

1st time:              Our hearts...        endless rain
2nd time:              I'll hold until we   fade away
e|---------|---------|---------|----------|---------|-------------------|
B|---------|---------|---------|----------|---------|-------------------|
G|-3-3-3-3-|-3-3-3-3-|-3-3-3-3-|-3-3-3-33-|---------|-------------------|
D|-3-3-3-3-|-3-3-3-3-|-3-3-3-3-|-3-3-3-33-|-3-3-3-3-|-3-3-------3~------|
A|-1-1-1-1-|-1-1-1-1-|-1-1-1-1-|-1-1-1-11-|-3-3-3-3-|-3-3-3-5-6----6-3~-|
E|---------|---------|---------|----------|-1-1-1-1-|-1-1---------------|
pm * * * *   * * * *   * * * *   * * * **   * * * *   * *

Riff2:

    The whole world turns to grey    We are fading away from this life
e|--------------------------------|--------------------|-----------|
B|--------------------------------|--------------------|-----------|
G|--------------------------------|-(3)----------------|-3-3-3-(5)-|
D|-(6)-------------(6)------------|-(3)----------------|-3-3-3-(5)-|
A|-(6)-------------(6)------------|-(1)----------------|-1-1-1-(3)-|
E|-(4)-------------(4)------------|-(1)----------------|-1-1-1-----|
pm                                                       * * *

Refrain:

    You and me, we'll be a part of the autumn harmony   together sleeping the endless dream
    You and me, we'll be gone in the wind of eternity   together sleeping the endless dream
e|----------------------------------------------------|----------------------------------|
B|----------------------------------------------------|----------------------------------|
G|-(5)--------------------------------(3)---------(5)-|----------------------------------|
D|-(5)-----(6)-------(5)--------------(3)---------(5)-|---------(6)------------------(5)-|
A|-(3)-----(6)-------(5)--------------(1)---------(3)-|---------(6)------------------(5)-|
E|---------(4)-------(3)--------------(1)-------------|---------(4)------------------(3)-|

Riff1: (again)

1st time:              All the colors turn                       to grey
2nd time:              Thereís no need to                        be afraid
e|----------|---------|---------|----------|---------|----------|---------|----------|
B|----------|---------|---------|----------|---------|----------|---------|----------|
G|-(5)--5-5-|-5-5-5-5-|-5-5-5-5-|-5-5-5-55-|---------|----------|---------|----------|
D|-(5)--5-5-|-5-5-5-5-|-5-5-5-5-|-5-5-5-55-|-5-5-5-5-|-5-5-5-55-|-5-5-5-5-|-5-5-5-55-|
A|-(3)--3-3-|-3-3-3-3-|-3-3-3-3-|-3-3-3-33-|-5-5-5-5-|-5-5-5-55-|-5-5-5-5-|-5-5-5-55-|
E|----------|---------|---------|----------|-3-3-3-3-|-3-3-3-33-|-3-3-3-3-|-3-3-3-33-|
pm      * *   * * * *   * * * *   * * * **   * * * *   * * * **   * * * *   * * * **

1st time:              Everything dies to be born again
2nd time:              I'll hold until we   fade away
e|---------|---------|---------|----------|---------|-------------------|
B|---------|---------|---------|----------|---------|-------------------|
G|-3-3-3-3-|-3-3-3-3-|-3-3-3-3-|-3-3-3-33-|---------|-------------------|
D|-3-3-3-3-|-3-3-3-3-|-3-3-3-3-|-3-3-3-33-|-3-3-3-3-|-3-3-------3~------|
A|-1-1-1-1-|-1-1-1-1-|-1-1-1-1-|-1-1-1-11-|-3-3-3-3-|-3-3-3-5-6----5-3~-|
E|---------|---------|---------|----------|-1-1-1-1-|-1-1---------------|
pm * * * *   * * * *   * * * *   * * * **   * * * *   * *


Now play the refrain,
then play Intro (pt 1) and instead of Intro pt2 follow by the solo:


Solo:

e|--------------------------------------------------|---------6------------------------|
B|-8~---6~---(8)------------------------------------|-----------6-8-6h8p6--------------|
G|----8----8-----8-7^8^7-8~----------------8-7------|----7-8--------------8-7-7h8p7----|
D|--------------------------8~-8------8--------8-10-|-10----------------------------8~-|
A|-------------------------------8-10---10----------|----------------------------------|
E|--------------------------------------------------|----------------------------------|


e|--------------------------------------|------------6--------------------------------|
B|---6-8-9-6-8-6h8p8--------------------|--------8-----6-8-8~-8-8-9-8-8~---8~---------|
G|-8-----------------8-7~-8-7h8p7-------|----7-8---8---------------------7----7-8-(8)-|
D|--------------------------------8-10~-|-10------------------------------------------|
A|--------------------------------------|---------------------------------------------|
E|--------------------------------------|---------------------------------------------|

e|-8h10h11p10p8----8~----------------------------------------------------|
B|--------------11----11-8----11~----------------------------------------|
G|-------------------------10-----10-12-8h10h12p10p8----7-8-7-10-8-7-----|
D|---------------------------------------------------10-------------9-10-|
A|-----------------------------------------------------------------------|
E|-----------------------------------------------------------------------|

And play the refrain 5x

Complete order of the song is:
Intro (pt1)
Intro (pt2)
Riff1
Riff2
Refrain
Riff1
Intro (pt1)
Solo
Refrain 5x (also intro pt1 may be heard ...)

That's the end of the song. Hope you enjoyed it ... NeoSK

  Visit MetalTabs.com for more metal tablature

bottom separator

Contact Us | Privacy Policy | Disclaimer
Copyright © 2001-2014 MetalTabs.com. All Rights Reserved.