top separator

Home

Forum

What's New

Submit a Tab

FAQ

Links

Contact Us

Link to Us

MuSpy.com

MetalTabs.com logo

Bands

0-9

A

B

C

D

E

F

G

H

I

J

K

L

M

N

O

P

Q

R

S

T

U

V

W

X

Y

Z

Search

What

Where
 

Whiplash - "Memory serves" Guitar Tab

Plain Text Version
More Whiplash Tabs

Hits: 3177
Updated: 2003-07-31 16:20:27

 

By:

Kramer

sendpm.gif

email.gif

Important note
We did our best to reach Whiplash and ask for their permission to publish this tab. Unfortunately they did not respond to our requests or we could not find a way to contact them. This tab is available online until Whiplash tells us to take it down.


#----------------------------------PLEASE NOTE---------------------------------#
#This file is the author's own work and represents their interpretation of the #
#song. You may only use this file for private study, scholarship, or research. #
#Unless specified otherwise, this is NOT an official tab from the band members.#
#------------------------------------------------------------------------------#

  Visit MetalTabs.com for more metal tablature
  
Whiplash "Memory Serves" from THRASHBACK (1998)

Tabbed by Kramer
E-mail: Pantera9560@aol.com

R.I.P. Tony Bono

Riff 1A twice
D----------------2------------------------------2------------
A----3---4---3-------3---4--0--------3---4---3-----3--4--0---
E-22---2---2---2---2---2----------22---2---2-----------------

Riff 1B once
D----------------2------------------------------2------------
A----3---4---3-------3---4--0--------3---4---3-----3--4--0---
E-00---0---0---0---0---0----------00---0---0-----------------

Riff 1A once

Riff 2A once
D-------------------9-9/---------------------
A-------------------7-7/--------------2--3---
E-0000000000000000----------00000000--0--1---

Riff 1A once
Riff 2A once
Riff 1A once

Riff 2B once
D-------------------9-9/--------------9--14---
A-------------------7-7/--------------7--12---
E-0000000000000000----------00000000----------

Riff 1A once

Riff 3A once
D-----------------------------------------------------------------------------9----9/10--
A-4-------4--2--4--7--6--4--2-------2h3-----4-------4--2--4--7--6--4--2-------7----7/8---
E-2-------2--0--2--5--4--2--0-------0h1-----2-------2--0--2--5--4--2--0-------0----------

D-------------------------------------------------------------------------9-----9---10--
A-4-------4--2--4--7--6--4--2-------2h3-----4-------4--2--4--7--6--4--2---7-----7---8---
E-2-------2--0--2--5--4--2--0-------0h1-----2-------2--0--2--5--4--2--0---0-----0-------

Riff 1A once
First part of Riff 1B once
First part of Riff 1A once
Riff 2A once
Riff 1A once
Riff 2A once
Riff 1A once
Riff 2B once
Riff 1A once
Riff 3A once

Riff 4 4x
D-------------------2-----4----------------------
A-4--------------4--0--4--2-22222222222---2-2-3--
E-2-22222222222--2-----2------------------0-0-1--

Riff 5 4x
D-4-4-5-6---------------6-6-5-4--------------
A-2-2-3-4-44444444444---4-4-3-2-22222222222--

Riff 3B once Gtr. 1
D-4-------4--2--4--7--6--4--2---------------------------------
A-2-------2--0--2--5--4--2--0----------4--2--7--6--5--4--2----
E--------------------------------------2--0--5--4--3--2--0----

Gtr. 2
E-7-------7--5--7--10--9--7--5---------------------------------
B--------------------------------------7--5--7--10--9--8--7----

Riff 1A once
First part of Riff 1B once
First part of Riff 1A once
Riff 1A once
First part of Riff 1B once
First part of Riff 1A once
Riff 3A once
Riff 4 6x
Riff 3B once

OK, now I've tabbed 6 out of 11 songs from THRASHBACK. I'll try and do the rest of the
album.

  Visit MetalTabs.com for more metal tablature

bottom separator

Contact Us | Privacy Policy | Disclaimer | Legal Notice
Copyright © 2001-2014 MetalTabs.com. All Rights Reserved.