top separator

Home

Forum

What's New

Submit a Tab

FAQ

Links

Contact Us

Link to Us

MetalTabs.com logo

Bands

0-9

A

B

C

D

E

F

G

H

I

J

K

L

M

N

O

P

Q

R

S

T

U

V

W

X

Y

Z

Search

What

Where
 

The Monolith Deathcult - "Desecration of the Black Stone" Guitar Tab

Plain Text Version
More The Monolith Deathcult Tabs

Hits: 4199
Rated: 3.75 out of 5 (4 votes)
Updated: 2003-07-31 16:13:10

 

By:

Yura

sendpm.gif

email.gif

Important note
This tab is available online because we obtained explicit permission from The Monolith Deathcult or their label.


#----------------------------------PLEASE NOTE---------------------------------#
#This file is the author's own work and represents their interpretation of the #
#song. You may only use this file for private study, scholarship, or research. #
#Unless specified otherwise, this is NOT an official tab from the band members.#
#------------------------------------------------------------------------------#

  Visit MetalTabs.com for more metal tablature
  
M O N O L I T H: "Desecration"[ver. 1.0/June 2003]

Album: The Aposeothis (2002)
Tabbed by: Yura Kowalchuk
e-mail:yura_kowalchuk@mail.ru

CHECK my site for more brutal death tabs HTTP://WWW.BLOOD-SCRAPES.NAROD.RU

NOTES:
() - tremolo pick
h - hammer on              ~ - vibrato
p - pull off               b - bend string
^ - pinch harmonics        p.m. - palm mute
x - muted note             t - right hand tap
/ - slide up               \ - slide down

COMMENTS: You always can Download this song
*http://www.monolith-deathcult.com/M...Desecration.mp3

Tune to B

Riff 1 (x2)
-|---------|---------------|---------|---------------|
-|---------|---------------|---------|---------------|
-|---------|---------------|---------|---------------|
-|-2---4-5-|-2---5-4-------|-2---4-5-|---------------|gtr. 1
-|-2-------|-2-------5-3h4-|-2-------|---------------|
-|-0-------|-0-------------|-0-------|-(1)----(4)----|
 |         |               |         |               |
-|---------|---------------|---------|---------------|
-|---------|---------------|---------|---------------|
-|---------|---------------|---------|---------------|
-|-2-------|-2-------------|-2-------|---------------|gtr. 2
-|-2---2-3-|-2---2-3-------|-2---2-3-|--------(6)----|
-|-0-------|-0-------2-1h2-|-0-------|-(1)-----------|

Riff 1 (x2) [with tremolo picking]

Riff 2a (x3)
-|--------------------------|
-|--------------------------|
-|--------------------------|
-|--------------------------|
-|----------------------(4)-|
-|-(0)(1)(0)(3)(0)(1)(0)----|
 |                          |
-|--------------------------|
-|--------------------------|
-|--------------------------|
-|--------------------------|
-|----------------------(1)-|
-|-(0)(1)(0)(3)(0)(1)(0)----|

Riff 2b
-|--------------------------|
-|--------------------------|
-|--------------------------|
-|----------------------(5)-|
-|-(4)(5)(4)(7)(4)(5)(4)----|
-|--------------------------|
 |                          |
-|--------------------------|
-|----------------------(4)-|
-|-(3)(4)(3)(6)(3)(4)(3)----|
-|--------------------------|
-|--------------------------|
-|--------------------------|

Riff 2a (x4)
Riff 2b (x4)

Riff 3 (x4)
-|---------------------------------------|
-|---------------------------------------|
-|---------------------------------------|
-|-------------------------------445577--|
-|-------------3333----3333----33--------|
-|-000033330000----0000----0000----------|
 |                                       |
-|---------------------------------------|
-|---------------------------------------|
-|---------------------------------------|
-|-------------------------------7788(10)|
-|-------------6666----6666----66--------|
-|-000033330000----0000----0000----------|

Riff 4 (x3)
-|------------------------|
-|------------------------|
-|------------------------|
-|------------------------|
-|---------------------(1)|
-|-00-11-00-33-00-11-00---|
   .. .. .. .. .. .. ..

Riff 2b
Riff 4 (x3)
Riff 2b
Riff 2a (x3)
Riff 2b
Riff 2a (x3)
Riff 2b

Riff 5 (x2)
-|--------------------------|------------------------|
-|--------------------------|------------------------|
-|-(5)(4)-------------------|-(5)(4)-----------------|
-|-------(5)(4)-------------|-------(5)(4)55(4)------|
-|--------------------------|------------------------|
-|-------------33(6)3356(5)-|------------------(1)---|
 |                          |                        |
-|--------------------------|------------------------|
-|--------------------------|------------------------|
-|--------------------------|------------------------|
-|-(7)(6)-------------------|-(7)(6)-----------------|
-|-------(8)(7)-------------|-------(8)(7)88(7)------|
-|-------------33(6)3356(5)-|------------------(1)---|

Riff 6 (x4)
-|-----------------|--------------------------|
-|-----------------|--------------------------|
-|-----------------|--------------------------|
-|-----------------|----------------------(2)-|
-|-2-3-2-3-2-3-2-5-|-(1)(2)(1)(4)(1)(2)(1)----|
-|-0-1-0-1-0-1-0-3-|--------------------------|
 | . . . . . . . . |                          |
-|-----------------|--------------------------|
-|-----------------|--------------------------|
-|-----------------|--------------------------|
-|-----------------|----------------------(5)-|
-|-2-3-2-3-2-3-2-5-|-(4)(5)(7)(4)(5)(7)(7)----|
-|-0-1-0-1-0-1-0-3-|--------------------------|
   . . . . . . . .

Riff 7 (x4)
-|-----------|---------------|-----------|--------------|
-|-----------|---------------|-----------|--------------|
-|-----------|---------------|-----------|--------------|
-|-------4-5-|-------5-4-----|-------4-5-|--------------|
-|-2---------|-2---------5-4-|-2---------|--------------|
-|-0-0-0-----|-0-0-0---------|-0-0-0-----|-(1)---(4)----|
   . . .       . . .           . . .

Riff 2a (x4)
Riff 3 (x4) [solos]
Riff 4 (x3)
Riff 2b
Riff 2a (x3)
Riff 2b

Riff 8a [both guitars]
-|-----------------|---------------------|
-|-----------------|---------------------|
-|-----------------|---------------------|
-|-----------------|---------------------|
-|-(7)(8)(7)(8)..x2|-(10)(11)(10)(11)..x2|
-|-----------------|---------------------|

Riff 8b
-|-----------------|---------------------|
-|-----------------|---------------------|
-|-----------------|---------------------|
-|-----------------|---------------------|
-|-(7)(8)(7)(8)..x2|-(10)(11)(10)(11)..x2|
-|-----------------|---------------------|
 |                 |                     |
-|-----------------|---------------------|
-|-----------------|---------------------|
-|-----------------|---------------------|
-|-----------------|-(9)-(10)(9)-(10)..x2|
-|-(7)(8)(7)(8)..x2|---------------------|
-|-----------------|---------------------|

Riff 9a (x2)
-|-------------------------------------|--------------------------------|
-|-------------------------------------|--------------------------------|
-|-------------------------------------|--------------------------------|
-|-------------------------------------|---------------------667766-----|
-|-----(6)-(5)-(8)-----(6)-(3)---------|-----(6)-----(8)-7788------8877-|
-|-(0)-------------(0)-----------------|-(0)-----(0)--------------------|
 |                                     |                                |
-|-------------------------------------|--------------------------------|
-|-------------------------------------|--------------------------------|
-|-----(8)----(10)---------------------|-----(8)----(10)----------------|
-|-------------------------------------|---------------------667766-----|
-|---------------------(8)-(5)-5-3-2-3-|-----------------7788------8877-|
-|-(0)-----(0)-----(0)---------3-1-0-1-|-(0)-----(0)--------------------|
                               . . . .

Riff 9b (x2)
-|-------------------------------------|-------------------------------------|
-|-------------------------------------|-------------------------------------|
-|-------------------------------------|------------------------889988-------|
-|-(9)-(8)-(9)-(10)-(9)-(8)------------|-(9)-(8)-(9)-(10)-991010------101099-|
-|--------------------------(10)-(8)---|-------------------------------------|
-|-------------------------------------|-------------------------------------|
 |                                     |                                     |
-|-------------------------------------|-------------------------------------|
-|-------------------------------------|-------------------------------------|
-|-------------------------------------|-------------------------------------|
-|-------------------------------------|------------------------667766-------|
-|-(7)-(6)-(7)-(8)-(7)-(6)-(7)-5-3-2-3-|-----(6)-----(8)--7788--------8877---|
-|-----------------------------3-1-0-1-|-(0)-----(0)-------------------------|
                               . . . .
Riff 2a (x4) solo#1
Riff 3 (x2) solo#2
Outro:Riff 5
Riff 2a (x4) solo#3
Riff 3 (x2) solo#4
Outro:Riff 5 (x2)

Riff 10a
-|----------------------|------------------------|
-|----------------------|------------------------|
-|----------------------|----------(5)-(7)(8)(7)-|
-|----------------------|------------------------|
-|----------------------|------------------------|
-|-(0)-(2)(3)(2)-(0)----|-(2)(3)(2)--------------|
 |                      |                        |
-|----------------------|------------------------|
-|----------------------|------------------------|
-|----------------------|------------------------|
-|----------------------|----------(3)-(5)(6)(5)-|
-|----------------------|------------------------|
-|-(0)-(2)(3)(2)-(0)----|-(2)(3)(2)--------------|

Riff 10b (x2)
-|------------------------------|------------------------------|
-|------------------------------|------------------------------|
-|------------------------------|------------------------------|
-|------------------------------|------------------------------|
-|-2-2-2-2-2-2-2-2------2-4-5-2-|-3-3-3-3-3-3-3-3------3-5-6-3-|
-|-0-0-0-0-0-0-0-0-..x3-0-2-3-0-|-1-1-1-1-1-1-1-1-..x3-1-3-4-1-|
   . . . . . . . .                . . . . . . . .

Riff 2a (x4)
Riff 6
Riff 2c
Riff 6
Riff 2c

ENDING
-|---|
-|---|
-|---|
-|---|
-|-2-|
-|-0-|

END OF SONG

  Visit MetalTabs.com for more metal tablature

bottom separator

Contact Us | Privacy Policy | Disclaimer | Legal Notice
Copyright © 2001-2014 MetalTabs.com. All Rights Reserved.