top separator

Home

Forum

What's New

Submit a Tab

FAQ

Links

Contact Us

Link to Us

MuSpy.com

MetalTabs.com logo

Bands

0-9

A

B

C

D

E

F

G

H

I

J

K

L

M

N

O

P

Q

R

S

T

U

V

W

X

Y

Z

Search

What

Where
 

Internal Bleeding - "Driven to conquer" Guitar Tab

Plain Text Version
More Internal Bleeding Tabs

Hits: 4963
Rated: 5.00 out of 5 (3 votes)
Updated: 2006-01-07 22:12:45

 

By:

Yura

sendpm.gif

email.gif

Important note
This tab is available online because we obtained explicit permission from Internal Bleeding or their label.


#----------------------------------PLEASE NOTE---------------------------------#
#This file is the author's own work and represents their interpretation of the #
#song. You may only use this file for private study, scholarship, or research. #
#Unless specified otherwise, this is NOT an official tab from the band members.#
#------------------------------------------------------------------------------#

  Visit MetalTabs.com for more metal tablature
  
Song : DRIVEN TO CONQUER
Band : INTERNAL BLEEDING
ALBUM : DRIVEN TO CONQUER
Copyright Pavement Records 2001

Version 2.0 (January'06)
Transcribed by : Yura Kowalchuk
       contact : yura_kowalchuk@mail.ru
URL: [www.blood-scrapes.nm.ru]

::TABULATURE LEGEND::
 " - tremolo             h - hammer on
 ~ - vibrato             \ - slide down
 p - pull off            / - slide down
 tr - trill              ^ - pinch harmonics
 = - sustained note      b - bend string
 p.m. - palm muting      t - tapping

Tuning is D [D, G, C, F, A, D]

[Intro]
|-----------------------------|-------------------------------|
|-----------------------------|-------------------------------|
|-----------------------------|-------------------------------|
|-----------------------------|-------------------------------|
|-2-2-2--3-3-3--7-7-7--6-6-6--|-2-2-2--3-3-3--7-7-7--6-6------|
|-0-0-0--1-1-1--5-5-5--4-4-4--|-0-0-0--1-1-1--5-5-5--4-4-14\--|
|                             |                               |
|-----------------------------|-------------------------------|
|-----------------------------|-------------------------------|
|-----------------------------|-------------------------------|
|-----------------------------|-------------------------------|
|-----------------------------|-2-2-2--3-3-3--7-7-7--6-6------|
|-----------------------------|-0-0-0--1-1-1--5-5-5--4-4-14\--|


[Riff 1]
||--------------------------[x4]-||-||----------------------------[x4]-||
||o-----------------------------o||-||o-------------------------------o||
||-------------------------------||-||---------------------------------||
||-------------------------------||-||---------------------------------||
||o-2-2-2--3-3-3--7-7-7--6-6-6--o||-||o------2--3-3-3--7-7-7--6-6-6---o||
||--0-0-0--1-1-1--5-5-5--4-4-4---||-||--0000-0--1-1-1--5-5-5--4-4-4----||
    . . .  . . .  . . .  . . .          .... .  . . .  . . .  . . .

[Riff 2 (x2)]
||----------------------------------|--------------------------------|-
||o---------------------------------|-----------------------------^--|-
||-----------4----------------------|----------4------------------4~-|-
||------------------7-----7-6-----6-|-----------------7-----7-6------|-
||o-5532-----2--2-3-5-8-7-5-4-7-6-4-|-5532-----2--2-3-5-8-7-5-4-7----|-
||------5532----0-1---6-5-----5-4---|-----5532----0-1---6-5-----5----|-
    ........    . . . . . . . . . .   ........    . . . . . . . .

-|---------------------------------|-------------------------------------||
-|---------------------------------|------------------------------------o||
-|----------4----------------------|----------4--------------------------||
-|-----------------7-----7-6-----6-|------------------7--------6---------||
-|-5532-----2--2-3-5-8-7-5-4-7-6-4-|-5532-----2--2-3--5--8--7--4--7--6--o||
-|-----5532----0-1---6-5-----5-4---|-----5532----0-1-----6--5-----5--4---||
   ........    . . . . . . . . . .   ........    . .  .  .  .  .  .  .

[Riff 3]
|-------------------------|------------------------------|-
|-------------------------|------------------------------|-
|-------------------------|--------------------------^---|-
|-------------------------|--------------------------7~~-|-
|-2--4--3--5--2--3--7--6--|-2--4--3--^---5-2-3-6-3-4-----|-
|-0--2--1--3--0--1--5--4--|-0--2--1--3~~-----------------|-
| .  .  .  .  .  .  .  .  | .  .  .      . . . . . .     |
|-------------------------|------------------------------|-
|-------------------------|------------------------------|-
|-------------------------|--------------------------^---|-
|-------------------------|--------------------------7~~-|-
|-2--4--3--5--2--3--7--6--|-2--4--3--^---5-2-3-6-3-4-----|-
|-0--2--1--3--0--1--5--4--|-0--2--1--3~~-----------------|-
  .  .  .  .  .  .  .  .    .  .  .      . . . . . .

-|-------------------------|-------------------------------|
-|-------------------------|-------------------------------|
-|-------------------------|--------------------------^----|
-|-------------------------|--------------------------7~~--|
-|-2--4--3--5--2--3--7--6--|-2--4--3--^---5-2-3-6-3-4------|
-|-0--2--1--3--0--1--5--4--|-0--2--1--3~~------------------|
 | .  .  .  .  .  .  .  .  | .  .  .      . . . . . .      |
-|-------------------------|-------------------------------|
-|-------------------------|-------------------------------|
-|-------------------------|--------------------------^----|
-|-------------------------|--------------------------10~~-|
-|-2--4--3--5--2--3--7--6--|-2--4--3--^---8-5-6-9-6-7------|
-|-0--2--1--3--0--1--5--4--|-0--2--1--3~~------------------|
   .  .  .  .  .  .  .  .    .  .  .      . . . . . .

[RIFF 3 /without palm muting/]

[Riff 4 (x2)]
||-----------------------------------|----------------------------------|-
||o----------------------------------|----------------------------------|-
||-----------------------------------|----------------------------------|-
||------------------------------1111-|----------------------------------|-
||o-----------------555522223333-----|------------------333-------------|-
||--0000222211113333-----------------|-0000222211113333-----444-333-222-|-
    ................................   ................ ... ... ... ...

-|----------------------------------|-----------------------------------||
-|----------------------------------|----------------------------------o||
-|----------------------------------|-----------------------------------||
-|-----------------------------1111-|-----------------------------------||
-|-----------------555522223333-----|------------------555-------------o||
-|-0000222211113333-----------------|-0000222211113333-----666-555-444--||
   ................................   ................ ... ... ... ...

[Riff 5 (x2)]
||-----------------------------|-----------------------------||
||o----------------------------|----------------------------o||
||-----------------------------|-----------------------------||
||-----------------------------|-----------------------------||
||o-2--5----------2--5---------|-2--5-----------2--5--------o||
||--0--3--5~~-----0--3--5-3~~--|-0--3--5~~------0--3--5-3~~--||
    .  .          .  .           .  .

|----------------------------|---------------------------|
|----------------------------|---------------------------|
|----------------------------|---------------------------|
|----------------------------|---------------------------|
|-2--5----------2--5---------|-2--5----------2--5--------|
|-0--3--8~~-----0--3--8-6~~--|-0--3--8~~-----0--3--8-6~~-|
| .  .          .  .         | .  .          .  .
|----------------------------|---------------------------|
|----------------------------|---------------------------|
|----------------------------|---------------------------|
|----------------------------|---------------------------|
|-2--5----------2--5---------|-2--5----------2--5--------|
|-0--3--5~~-----0--3--5-3~~--|-0--3--5~~-----0--3--5-3~~-|
  .  .          .  .         | .  .          .  .

|----------------------------|---------------------------|
|----------------------------|---------------------------|
|----------------------------|---------------------------|
|----------------------------|---------------------------|
|-2--5--7~~-----2--5--7-5~~--|-2--5--7~~-----2--5--7-5~~-|
|-0--3----------0--3---------|-0--3----------0--3--------|
| .  .          .  .         | .  .          .  .        |
|----------------------------|---------------------------|
|----------------------------|---------------------------|
|----------------------------|---------------------------|
|----------------------------|---------------------------|
|-2--5----------2--5---------|-2--5----------2--5--------|
|-0--3--5~~-----0--3--5-3~~--|-0--3--5~~-----0--3--5-3~~-|
  .  .          .  .           .  .          .  .

[Outro]
|-------------------------|-------------------------|
|-------------------------|-------------------------|
|-------------------------|-------------------------|
|-------------------------|-------------------------|
|-7-5-4-2-4-5-7-5-4-2-4-5-|-3-----------3-----------|
|-5-3-2-0-2-3-5-3-2-0-2-3-|---6-5-3-5-6---6-5-3-5-6-|
| . . . . . . . . . . . . | . . . . . . . . . . . . |
|-------------------------|-------------------------|
|-------------------------|-------------------------|
|-------------------------|-------------------------|
|-------------------------|-------------------------|
|-7-5-4-2-4-5-7-5-4-2-4-5-|-------------------------|
|-5-3-2-0-2-3-5-3-2-0-2-3-|-5-3-2-0-2-3-5-3-2-0-2-3-|
  . . . . . . . . . . . .   . . . . . . . . . . . .

[Riff 6a (x2)]                          [Riff 6b (x2)]
||-------------------------------||    ||---------------------------||
||o-----------------------------o||    ||o-------------------------o||
||-------------------------------||    ||--9-7-6---6-7-9-7-6---6-7--||
||--10-8-7----7-8-10-8-7----7-8--||    ||--------9-----------9------||
||o--------10------------10-----o||    ||o-------------------------o||
||-------------------------------||    ||---------------------------||
|   .  . . .  . . .  . . .  . .   |    |   . . . . . . . . . . . .   |
||-------------------------------||    ||---------------------------||
||o-----------------------------o||    ||o-------------------------o||
||-------------------------------||    ||---------------------------||
||-------------------------------||    ||---------------------------||
||o--7-5-4-2-4-5-7-5-4-2-4-5----o||    ||o-7-5-4-2-4-5-7-5-4-2-4-5-o||
||---5-3-2-0-2-3-5-3-2-0-2-3-----||    ||--5-3-2-0-2-3-5-3-2-0-2-3--||
     . . . . . . . . . . . .               . . . . . . . . . . . .

[Riff 7 (x2)]
||--------------------------|---------------------------||
||o-------------------------|--------------------------o||
||--------------------------|---------------------------||
||--------------------------|---------------------------||
||o-7-5-4-2-4-5-7-5-4-2-4-5-|-7-5-4-2-4-5-7-5-4-2-4-5--o||
||--5-3-2-0-2-3-5-3-2-0-2-3-|-5-3-2-0-2-3-5-3-2-0-2-3---||
|   . . . . . . . . . . . . | . . . . . . . . . . . .    |
||--------------------------|---------------------------||
||o-------------------------|--------------------------o||
||--------------------------|---------------------------||
||--------------------------|---------------------------||
||o-7-5-4-2-4-5-7-5-4-2-4-5-|-7-5-4-2-4-5-7-5-4-2-4-5--o||
||--5-3-2-0-2-3-5-3-2-0-2-3-|-5-3-2-0-2-3-5-3-2-0-2-3---||
    . . . . . . . . . . . .   . . . . . . . . . . . .

[Riff 8a]
|---------------------------|-----------------------------|-
|---------------------------|-----------------------------|-
|---------------------------|-----------------------------|-
|-7\6/7\6-9-----------------|-7\6/7\6-10------------------|-
|-5\4/5\4-7--2--5--2--7--3--|-5\4/5\4--8--2--5--2--7--3---|-
|------------0--3--0--5--1--|-------------0--3--0--5--1---|-
              .  .  .  .  .                .  .  .  .  .

-|---------------------------|----------------------------|
-|---------------------------|----------------------------|
-|---------------------------|----------------------------|
-|-5\4/5\4-7-----------------|-7\6/7\6-9------------------|
-|-3\2/3\2-5--2--5--2--7--3--|-5\4/5\4-7--2--5--2--7--3---|
-|------------0--3--0--5--1--|------------0--3--0--5--1---|
              .  .  .  .  .               .  .  .  .  .

[Riff 8b]
|--------------------------------|---------------------------------|-
|--------------------------------|---------------------------------|-
|--------------------------------|---------------------------------|-
|-7-6-7-6-9----------------------|-7-6-7-6-10----------------------|-
|-5-4-5-4-7----------------------|-5-4-5-4--8----------------------|-
|------------000-333-000-555-111-|-------------000-333-000-555-111-|-
              ... ... ... ... ...               ... ... ... ... ...

-|--------------------------------|--------------------------------|
-|--------------------------------|--------------------------------|
-|--------------------------------|--------------------------------|
-|-7-6-7-6-7----------------------|-7-6-7-6-9----------------------|
-|-5-4-5-4-5----------------------|-5-4-5-4-7----------------------|
-|------------000-333-000-555-111-|------------000-333-000-555-111-|
              ... ... ... ... ...              ... ... ... ... ...

[Outro 2]
|--------------------------------------|-
|--------------------------------------|-
|--------------------------------------|-
|---66---55---66---88---66--55--66--99-|-
|-5----4----5----7----55--44--55--88---|-
|--------------------------------------|-
| . .. . .. . .. . .. ................ |
|--------------------------------------|-
|--------------------------------------|-
|--------------------------------------|-
|---66---55---66---88---66--55--66--99-|-
|-5----4----5----7----55--44--55--88---|-
|--------------------------------------|-
  . .. . .. . .. . .. ................

-|-------------------------------------------------|
-|-------------------------------------------------|
-|-------------------------------------------------|
-|---88---77---88---10-10---88--77--88-------11-11-|
-|-7----6----7----9-------77--66--77---10-10-------|
-|-------------------------------------------------|
 | . .. . .. . .. . .  .  ............ .  .  .  .  |
-|-------------------------------------------------|
-|-------------------------------------------------|
-|---66---55---66---8--8----66--55--66-------9--9--|
-|-5----4----5----7-------55--44--55---8--8--------|
-|-------------------------------------------------|
-|-------------------------------------------------|
   . .. . .. . .. . .  .  ............ .  .  .  .

[Riff 9]
||---------------------------[x3]-||-
||o------------------------------o||-
||--------------------------------||-
||--9-8---------------------------||-
||o-7-6-10-9-6-7-2-5-2-4---------o||-
||-------8-7-4-5-0-3-0-2-1h2p1h2--||-
    . .  . . . . . . . .

-|-------------------------||---------------------------[x4]-||
-|-------------------------||o------------------------------o||
-|-------------------------||--------------------------------||
-|-9-8---------------------||--9-8---------------------------||
-|-7-6-10-9-6-7-2-5-2-4-3--||o-7-6-10-9-6-7-2-5-2-4---------o||
-|------8-7-4-5-0-3-0-2-1--||-------8-7-4-5-0-3-0-2-1h2p1h2--||
   . .  . . . . . . . . .      . .  . . . . . . . .

[RIFF 3] [RIFF 3 /without palm muting/] [RIFF 2 (x2)]

END OF SONG

  Visit MetalTabs.com for more metal tablature

bottom separator

Contact Us | Privacy Policy | Disclaimer | Legal Notice
Copyright © 2001-2014 MetalTabs.com. All Rights Reserved.