top separator

Home

Forum

What's New

Submit a Tab

FAQ

Links

Contact Us

Link to Us

MetalTabs.com logo

Bands

0-9

A

B

C

D

E

F

G

H

I

J

K

L

M

N

O

P

Q

R

S

T

U

V

W

X

Y

Z

Search

What

Where
 

Sabbat (UK) - "Hosanna In Excelsis" Guitar Tab

Plain Text Version
More Sabbat (UK) Tabs

Hits: 5654
Rated: 4.00 out of 5 (11 votes)
Updated: 2003-08-11 13:51:11

 

By:

BozoNightmare

sendpm.gif

email.gif

Important note
This tab is available online because we obtained explicit permission from Sabbat (UK) or their label.


#----------------------------------PLEASE NOTE---------------------------------#
#This file is the author's own work and represents their interpretation of the #
#song. You may only use this file for private study, scholarship, or research. #
#Unless specified otherwise, this is NOT an official tab from the band members.#
#------------------------------------------------------------------------------#

  Visit MetalTabs.com for more metal tablature
  
                        Sabbat - Hosanna in Excelsis
                   From the album History Of A Time To Come
                        Copyright 1988 Noise Records
                          Version 1.1 - July 2003

  Transcribed by: BozoNightmare

  Comments, Questions, Corrections,mail/messenger SixStringSlaughter@hotmail.com

  Notes: Each riff is broken up into parts.  The number of times to play each
         part in that riff is listed after all parts of the riff.

         "->" followed by a particular riff, indicates when to actually play
         that riff/part of a riff.
         In this tab, the song structure is at the end.

         Most artificial harmonics are of the same pitch as the fret they are
         being played on.

         Each riff is tabbed based on how it is played the majority of times.

  Version 1.1 - Fixed up dodgy palm mute formatting on Riff B.


  Notation:
  .  - palm mute                ~  - vibrato
  \  - slide down               b  - bend
  /  - slide up                    f  - full
  h  - hammer on                   h  - half
  p  - pull off                    r  - release
  <> - artificial harmonic      () - let ring
  T  - tap                      tr - trill
  {3}- triplet                  NH - natural harmonic
  X  - pickslide/muffled note   R  - abrupt stop


  Tuning: Standard E (EADGBE)


   RIFF A:

   RIFF A1
  |------------------------------------------------------------------|
  |------------------------------------------------------------------|
  |------------------------------------------------------------------| GTR I
  |------------------------------------------------------------------|
  |---------2-------3-------5-------3-------2--------------<3>-------|
  |-0---0-------0-------0-------0-------0-------0---0---0------------|
  | .   .       .       .       .       .       .   .   .            |
  |                                                                  |
  |------------------------------------------------------------------|
  |------------------------------------------------------------------|
  |------------------------------------------------------------------| GTR II
  |-2---R------------------------------------------------------------|
  |-2---R---don't-play-at-very-start-of-song-------------------------|
  |-0---R------------------------------------------------------------|

   RIFF A2
  |------------------------------------------------------------------|
  |------------------------------------------------------------------|
  |------------------------------------------------------------------| GTR I
  |-----------------------------------------5---------------2--------|
  |---------2-------3-------5-------3-3-3-3-3-------0-0-0-0-0--------|
  |-0---0-------0-------0--------------------------------------------|
    .   .       .       .           . . . .         . . . .

  |------------------------------------------------------------------|
  |------------------------------------------------------------------|
  |------------------------------------------------------------------| GTR II
  |-----------------------------------------5---------------2--------|
  |---------------------------------3-3-3-3-3-------0-0-0-0-0--------|
  |------------------------------------------------------------------|
                                    . . . .         . . . .

   RIFF A3
  |------------------------------------------------------------------|
  |------------------------------------------------------------------|
  |------------------------------------------------------------------| GTR I
  |---------------------------------5---------------4----------------|
  |---------2-------3-------5-------3---------------2-------0---0----|
  |-0---0-------0-------0--------------------------------------------|
    .   .       .       .                                   .   .

  |------------------------------------------------------------------|
  |------------------------------------------------------------------|
  |------------------------------------------------------------------| GTR II
  |------------------------------------------------------------------|
  |-2---let-ring-until-second-half-of-RIFF-A2-comes-around-again-----|
  |-0----------------------------------------------------------------|

  RIFF A1+A2  x 3
  RIFF A1     x 1
  RIFF A3     x 1

  Play GTR II once each time RIFF A is played, ignore GTR II any other time.



  RIFF B:

   RIFF B1
  |------------------------------------------------------------------|
  |------------------------------------------------------------------|
  |---------------------------------0-h-2-------0-h-2--<3>-<2h3p2>---|
  |-2-------------------------------0-h-2-------0-h-2----------------|
  |-0-------0---0---0---0---0---0-----------0------------------------|
  |------------------------------------------------------------------|
            .   .   .   .   .   .           .

   RIFF B2
  |------------------------------------------------------------------|
  |------------------------------------------------------------------|
  |---------------------------------0-h-2-------0-h-2-------7\-------|
  |-2-------------------------------0-h-2-------0-h-2-------7\-------|
  |-0-------0---0---0---0---0---0-----------0------------------------|
  |------------------------------------------------------------------|
            .   .   .   .   .   .           .

   RIFF B3
  |------------------------------------------------------------------|
  |---------------------------------1h2p1----------------------------|
  |-----------------------------------------0h1p0--------------------|
  |-2-----------------------------------------------0h1p0------------|
  |-0-------0---0---0---0---0---0---------------------------0h1p0----|
  |------------------------------------------------------------------|
            .   .   .   .   .   .

  RIFF B1     x 1
  RIFF B2     x 1
  RIFF B1     x 1
  RIFF B3     x 1



   RIFF C:

   RIFF C1
  |------------------------------------------------------------------|
  |------------------------------------------------------------------|
  |------------------------------------------------------------------|
  |-4----------------------------------------------------------------|
  |-4-------------------------------4-------X-------4-------5--------|
  |-2-------2---2---2---2---2---2---2-------X-------2-------3--------|
            .   .   .   .   .   .

   RIFF C2
  |------------------------------------------------------------------|
  |------------------------------------------------------------------|
  |------------------------------------------------------------------|
  |-4-----------------------------------------------4-p-2---4-p-2----|
  |-4---------------------------------------4-p-2--------------------|
  |-2-------2---2---2---2---2---2---3-p-2----------------------------|
            .   .   .   .   .   .

   RIFF C3
  |------------------------------------------------------------------|
  |------------------------------------------------------------------|
  |------------------------------------------------------------------|
  |-4-------------------------------3--------------------------------|
  |-4-------------------------------3--------------------------------|
  |-2-------2---2---2---2---2---2---1--------------------------------|
            .   .   .   .   .   .

  RIFF C1     x 1
  RIFF C2     x 1
  RIFF C1     x 1
  RIFF C3     x 1



   RIFF D: (Not sure about this one, but it'd surely be a bastard to play
            fast if I put in all the notes I thought were there :) )

   RIFF D1
  |------------------------------------------------------------------|
  |------------------------------------------------------------------|
  |------------------------------------------------------------------|
  |---------------2h5p2---------------------------2h5p2--------------|
  |-0-------5---------------5-------0-------5---------------5--------|
  |------------------------------------------------------------------|
            .                               .

   RIFF D2
  |------------------------------------------------------------------|
  |------------------------------------------------------------------|
  |------------------------------------------------------------------|
  |---------------2h5p2----------------------------------------------|
  |-0-------5---------------5---------------3-------2----------------|
  |---------------------------------5-----------------------3--------|
            .                                               .

   RIFF D3
  |------------------------------------------------------------------|
  |------------------------------------------------------------------|
  |------------------------------------------------------------------|
  |---------------2h5p2-------------5---------------7-----2h5p2------|
  |-0-------5---------------5-------3---------------5----------------|
  |------------------------------------------------------------------|
            .                only play when RIFF D1 follows ^

  RIFF D1     x 1
  RIFF D2     x 1
  RIFF D1     x 1
  RIFF D3     x 1



   RIFF E:

   RIFF E1
  |------------------------------------------------------------------|
  |------------------------------------------------------------------|
  |------------------------------------------------------------------|
  |-3-----------------------------------------------6---5---3--------|
  |-1---5---5---5---5---5---5---5---5---5---5---5---4---3---1---5----|
  |-----3---3---3---3---3---3---3---3---3---3---3---------------3----|
            .   .   .   .   .   .   .   .   .   .               .

  |------------------------------------------------------------------|
  |------------------------------------------------------------------|
  |------------------------------------------------------------------|
  |--------<5>---------<5>---------<5>---------<5>----------5---\----|
  |-5---5-------5---5-------5---5-------5---5-------5---5---3---\----|
  |-3---3-------3---3-------3---3-------3---3-------3---3------------|
    .   .       .   .       .   .       .   .       .   .

  |------------------------------------------------------------------|
  |------------------------------------------------------------------|
  |------------------------------------------------------------------|
  |--------<5>---------<5>----------------------------------5--------|
  |-5---5-------5---5-------5---5--<5>--5---5--<5>--5---5---3--------|
  |-3---3-------3---3-------3---3-------3---3-------3---3------------|
    .   .       .   .       .   .       .   .       .   .

  RIFF E1     x 1
  RIFF E2     x 1
  RIFF E1     x 1
  RIFF E3     x 1



   RIFF F:

    RIFF F1
  |------------------------------------------------------------------|
  |------------------------------------------------------------------|
  |------------------------------------------------------------------| GTR I
  |-9---------------9---------------9------------------hph--10-------|
  |-7---------------7---------------7---------------7-78787-8--------|
  |-0---0-0-0-0-0-0-0---0-0-0-0-0-0-0---0-0-0-0-0-0------------------|
        . . . . . .     . . . . . .     . . . . . .

  |------------------------------------------------------------------|
  |------------------------------------------------------------------|
  |------------------------------------------------------------------| GTR I
  |-9---------------9---------------9-----------------7h8p7----------|
  |-7---------------7---------------7---------------7-------8--------|
  |-0---0-0-0-0-0-0-0---0-0-0-0-0-0-0---0-0-0-0-0-0---------6--------|
  |     . . . . . .     . . . . . .     . . . . . .                  |
  |                                                                  |
  |------------------------------------------------------------------|
  |------------------------------------------------------------------|
  |------------------------------------------------------------------| GTR II
  |------------------------------------------------------------------|
  |---------------------------------------------------------8--------|
  |---------------------------------------------------------6--------|


  |------------------------------------------------------------------|
  |------------------------------------------------------------------|
  |------------------------------------------------------------------| GTR I
  |-9---------------9---------------9---------------9--hph--10-------|
  |-7---------------7---------------7---------------7-78787-8--------|
  |-0---0-0-0-0-0-0-0---0-0-0-0-0-0-0---0-0-0-0-0-0------------------|
  |     . . . . . .     . . . . . .     . . . . . .                  |
  |                                                                  |
  |------------------------------------------------------------------|
  |------------------------------------------------------------------|
  |------------------------------------------------------------------| GTR II
  |-2----------------------------------------------------------------|
  |-2----------------------------------------------------------------|
  |-0----------------------------------------------------------------|


  |------------------------------------------------------------------|
  |------------------------------------------------------------------|
  |------------------------------------------------------------------| GTR I
  |-9---------------9---------------9---------------9-7h8p7----------|
  |-7---------------7---------------7---------------7-------8--------|
  |-0---0-0-0-0-0-0-0---0-0-0-0-0-0-0---0-0-0-0-0-0---------6--------|
  |     . . . . . .     . . . . . .     . . . . . .                  |
  |                                                                  |
  |------------------------------------------------------------------|
  |------------------------------------------------------------------|
  |------------------------------------------------------------------| GTR II
  |(2)---------------------------------------------------------------|
  |(2)------------------------------------------------------8--------|
  |(0)------------------------------------------------------6--------|


    RIFF F2
  |------------------------------------------------------------------|
  |------------------------------------------------------------------|
  |------------------------------------------------------------------| GTRS
  |-9---------------9---------------9---------------9--hph--10-------| I & II
  |-7---------------7---------------7---------------7-78787-8--------|
  |-0---0-0-0-0-0-0-0---0-0-0-0-0-0-0---0-0-0-0-0-0------------------|
        . . . . . .     . . . . . .     . . . . . .

  |------------------------------------------------------------------|
  |------------------------------------------------------------------|
  |------------------------------------------------------------------| I & II
  |-9---------------9---------------9---------------9-7h8p7----------|
  |-7---------------7---------------7---------------7-------8--------|
  |-0---0-0-0-0-0-0-0---0-0-0-0-0-0-0---0-0-0-0-0-0---------6--------|
        . . . . . .     . . . . . .     . . . . . .



    RIFF G:

  |------------------------------------------------------------------|
  |------------------------------------------------------------------|
  |------------------------------------------------------------------|
  |-2-------------------------------2---------------3-------3--------|
  |-2-------------------------------2---------------3-------3--------|
  |-0-------------------------------0-------0---0-0-1---0-0-1--------|
                                            .   . .     . .

  |------------------------------------------------------------------|
  |------------------------------------------------------------------|
  |------------------------------------------------------------------|
  |-2-------------------------------2---------------3-------3--------|
  |-2-------------------------------2---------------1-------1--------|
  |-0-------------------------------0-------0---0-0-----0-0----------|
                                            .   . .     . .



  -> RIFF A x  1  \
  -> RIFF B x  1   \
  -> RIFF C x  2    > x 2
  -> RIFF D x  2   /
  -> RIFF E x  2  /

  -> RIFF F1 x 1
  -> RIFF F2 x 6 (Solo at 1.5x)
  -> RIFF G  x 4

  -> RIFF A x  1
  -> RIFF B x  1
  -> RIFF C x  2
  -> RIFF D x  2
  -> RIFF E x  2

  -> RIFF A1 x 1
  -> RIFF A2 x 1 (without GTR II)

  -> END ON E POWER CHORD

  Visit MetalTabs.com for more metal tablature

bottom separator

Contact Us | Privacy Policy | Disclaimer | Legal Notice
Copyright © 2001-2014 MetalTabs.com. All Rights Reserved.