top separator

Home

Forum

What's New

Submit a Tab

FAQ

Links

Contact Us

Link to Us

MuSpy.com

MetalTabs.com logo

Bands

0-9

A

B

C

D

E

F

G

H

I

J

K

L

M

N

O

P

Q

R

S

T

U

V

W

X

Y

Z

Search

What

Where
 

Lake of Tears - "So fell autumn rain" Guitar Tab

Plain Text Version
More Lake of Tears Tabs

Hits: 8260
Rated: 3.92 out of 5 (13 votes)
Updated: 2001-07-02 16:16:40

 

Important note
This tab is available online because we obtained explicit permission from Lake of Tears or their label.


#----------------------------------PLEASE NOTE---------------------------------#
#This file is the author's own work and represents their interpretation of the #
#song. You may only use this file for private study, scholarship, or research. #
#Unless specified otherwise, this is NOT an official tab from the band members.#
#------------------------------------------------------------------------------#

  Visit MetalTabs.com for more metal tablature
  
Taken with permission from The Crimson Book - http://www.lakeoftears.net

Author/Artist: Lake Of Tears
Title: So fell autumn rain (intro)
Album: Forever Autumn

Transcribed by: Labros Giampouras
Email: labrosggrc@netscape.net

Intro (Normally played by violin)
----------------------------------------------------------------|
----------------------------------------------------------------|
----------5--7--2------2--3--5--3----2---0----------------------|
-8-----8--------------------------------------------------------|
----------------------------------------------------------------|
----------------------------------------------------------------|

----------------------------------------------------------------|
----------------------------------------------------------------|
----7--5-----5--------------------------------------------------|
-5--------8-----8--7--5----7------------10------12-----10-----7-|
------------------------------8------7-------7------------------|
----------------------------------------------------------------|

  Visit MetalTabs.com for more metal tablature

bottom separator

Contact Us | Privacy Policy | Disclaimer | Legal Notice
Copyright © 2001-2014 MetalTabs.com. All Rights Reserved.