top separator

Home

Forum

What's New

Submit a Tab

FAQ

Links

Contact Us

Link to Us

MetalTabs.com logo

Bands

0-9

A

B

C

D

E

F

G

H

I

J

K

L

M

N

O

P

Q

R

S

T

U

V

W

X

Y

Z

Search

What

Where
 

God Dethroned - "Nocturnal" Bass Tab

Plain Text Version
More God Dethroned Tabs

Hits: 3685
Rated: 4.00 out of 5 (4 votes)
Updated: 2003-07-31 13:20:36

 

By:

sendpm.gif

email.gif

Important note
This tab is available online because we obtained explicit permission from God Dethroned or their label.


#----------------------------------PLEASE NOTE---------------------------------#
#This file is the author's own work and represents their interpretation of the #
#song. You may only use this file for private study, scholarship, or research. #
#Unless specified otherwise, this is NOT an official tab from the band members.#
#------------------------------------------------------------------------------#

  Visit MetalTabs.com for more metal tablature
  
Band:  (GOD DETHRONED)
Album: (BLOODY BLASPHEMY)
Song:  (NOCTURNAL)

Copyright (c)  (METAL BLADE RECORD) (1999)
Version 1.0 - (JUNE-26-2003)

Transcribed By: (JUAN DIAZ)
Email:          (TUONELA666@HOTMAIL.COM)

TUNNING DGCF

RIFF 1                                           2x
|-------------------------|-----------------------|
|---0-2-3-2---------------|---0-2-3-2----------2--|
|-0---------3-5-3-2-3-2---|-0---------3-5-3-2-3-3-|
|-----------------------3-|-----------------------|

RIFF 2                               2x
|-------------------------------------|
|-------------------------------------|
|-7----8----10\-810-5----8----7\5-7\5-|
|-------------------------------------|

RIFF 3                                           4x
|-------------------------------------------------|
|-------7----7--------------10----10--------------|
|-0-000--0-0---7~-----8-888----8-8-------5------3-|
|-----------------8-7----------------3333---1111--|

RIFF 3 4x
RIFF 1 2x
RIFF 2 2x
RIFF 3 4x
RIFF 1 2x
RIFF 2 2x

END FILL
-----------
-----------
--7-\------
-----------

  Visit MetalTabs.com for more metal tablature

bottom separator

Contact Us | Privacy Policy | Disclaimer | Legal Notice
Copyright © 2001-2014 MetalTabs.com. All Rights Reserved.