top separator

Home

Forum

FAQ

Contact Us

Link to Us

MetalTabs.com logo

Bands

0-9

A

B

C

D

E

F

G

H

I

J

K

L

M

N

O

P

Q

R

S

T

U

V

W

X

Y

Z

Luca Turilli - "New Century┤s Tarantella" Guitar Tab

Plain Text Version
More Luca Turilli Tabs

Hits: 6380
Rated: 5.00 out of 5 (14 votes)
Updated: 2003-08-11 13:28:28


#----------------------------------PLEASE NOTE---------------------------------#
#This file is the author's own work and represents their interpretation of the #
#song. You may only use this file for private study, scholarship, or research. #
#Unless specified otherwise, this is NOT an official tab from the band members.#
#------------------------------------------------------------------------------#

  Visit MetalTabs.com for more metal tablature
  
                             NEW CENTURY'S TARANTELLA (UPDATED)
                                As recorded by Luca Turilli
                       (From the 2003 Album PROPHET OF THE LAST ECLIPSE)


Music by Luca Turilli
Transcribed by Matu87  from Argentina!!!!!
CoppyRightę 2003
Updated day: 26/07/2003
Mail / msn : mgpaeze87@hotmail.com

-"Normal-Tuning"-

Mail me if you find any mistake!

ENJOY IT!!!! ;D



Gtr I
 Intro
E----------------------------------------------------------------------------|
B-----------------------------------------------------|----------------------|
G-----------------------------------------------------|----------------------|
D-9-9----5-5---5-5--------5-5---5-5-------------------|-----------------5----|
A-7-7----3-3---3-3---5~---3-3---2-2---5---5----2~--x/-|-2---------------3-3-3|
E--------------------3~---------------3---2----0~-------0-0-0-0-0-0-0-0------|
							 pm............  pm..


E----------------------------------------------------------------------------|
B----------------------------------------------------------------------------|
G----------------------------------------------------------------------------|
D-----------5-------------------------------5---------------5----------------|
A-3-3-3-3-3-3-3-3-3-3-3-3-3-5---------------3-3-3-3-3-3-3-3-2-2-2-2-2-2-2-2--|
E---------------------------3-3-3-3-3-3-3-3----------------------------------|
 ..........  pm............  pm............  pm............  pm.............

			      Verse 1
E----------------------------------------------------------------------------|
B-------------------------------|--------------------------------------------|
G-------------------------------|--------------------------------------------|
D-5-----------------------------|--------------------------------------------|
A-2-2-2-2-5-------5-------2--x/-|-2---2---2---2---2---2---2---2----3---3---2-|
E---------3-3-3-3-2-2-2-2-0---------0---0---0---0---0---0---0----1---1---0---|
    pm....  pm....  pm....


E----------------------------------------------------------------------------|
B----------------------------------------------------------------------------|
G----------------------------------------------------------------------------|
D----------------------------------------------------------------------------|
A---2---2----2-0------0----------------------------------2-------------------|
E-0---0----1-----3-2----3-2-0~-0h2h3p2p0-0h2h3p20-0h2h3----2-0--0h2h3p2p0-0h-|
          pm.................

 		    Verse 2
E----------------------------------------------------------------------------|
B--------------------|-------------------------------------------------------|
G--------------------|-------------------------------------------------------|
D--------------------|------------------------------------0------------------|
A---------------2~---|-0---0---0---0---0---0---0----0-2-3----1---1---0---0---|
E-2h3p2p0-0h2h3---0~-----0---0---0---0---0---0---0-------------1---1---0---0-|
						    pm......


E----------------------------------------------------------------------------|
B----------------------------------------------------------------------------|
G----------------------------------------------------------------------------|
D---2-0------0----------------------------------2----------------------------|
A-2-----3-2----3-2-0--0h2h3p2p0-0h2h3p2p0-0h2h3---2-0--0h2h3p2p0-0h2h3p2p0---|
E----------------------------------------------------------------------------|
 pm.................

               Riff 1
E----------------------------------------------------------------------------|
B-------------|--------------------------------------------------------------|
G-------------|--------------------------------------------------------------|
D-------2-----|--5--4-----5--7--------9----5---------------4-----------------|
A-0h2h3---0---|--3--2--5--3--5--7--6--7----3-3-3-3-3-3-3-3-2-2-2-2-2-2-2-2-5-|
E----------------------3--------5--4---------------------------------------3-|
					  pm................................


E----------------------------------------------------------------------------|
B----------------------------------------------------------------------------|
G----------------------------------------------------------------------------|
D---------------5---------------7--------------------------------------------|
A---------------3-3-3-3-3-3-3-3-5-5-5-5-5-5-5-5-7---------------6-------6----|
E-3-3-3-3-3-3-3---------------------------------5-5-5-5-5-5-5-5-4-4-4-4-4-4-4|
  ..........................................................................

			               Chorus
E----------------------------------------------------------------------------|
B-----------------------------------------|----------------------------------|
G-----------------------------------------|*---------------------------------|
D----9-------10---9---8-----10---9p8p6/5--|*---------------------------------|
A----7-7-7-7----7---7---7-7---------------|---5-5--5-5-5--5------------------|
E--4----------------------------------------------------------3-3--3-3-3--3--|
  ......................................      pm............................


E----------------------------------------------------------------------------|
B----------------------------------------------------------------------------|
G---------------------------------------------------------------------------*|
D---------------------------------------------------------------------------*|
A--7--5--3--3-3-3-3-3-3-3-3-3-3-3-3------------------------------------------|
E--5--3--1---------------------------3-3-3-3-3-3-3-3-3-3-3--4-4-4-4-4-4-4~---|
           pm............................................................

Riff 2
E--------------------------------------------------------------------------|
B--------------------------------------------------------------------------|
G--------------------------------------------------------------------------|
D--------------------------------------------------------------------------|
A--0-0-0-0-0-0-0-0-0-0-0-0-0-0-0-0-0-0-0-2-0---------0-0-0-0-0-0-0-0-0-0-0-|
E--------------------------------------------4-2-4-0-----------------------|
  pm......................................          pm....................

      					Guitar Solo
E-----------------------------------------------12-0-0-0-12-0-0-0-12-0-0-0-|
B-------------------------------|--Verse 2- -|-----------------------------|
G-------------------------------|----x2------|*----------------------------|
D-2-0--------2--------2p0-------|---with-----|*----------------------------|
A-----3-2-0~---2-3-0------3p2p0-|--Riff 2----|-----------------------------|
E--------------------------------------------------------------------------|



E-10-0-0-0-12-0-0-0-13-0-0-0-13-0-0-0-12-0-0-0-12-0-0-0-12-0-0-0-10-0-0-0-7|
B--------------------------------------------------------------------------|
G--------------------------------------------------------------------------|
D--------------------------------------------------------------------------|
A--------------------------------------------------------------------------|
E--------------------------------------------------------------------------|



E-0-0-0-10-0-0-0-7-0-0-0-5~-\-----17p12------12h15p12------12-13p10--------|
B-------------------------------|------13--13--------13--13--------11--11--|
G------------------------------*|--------14------------14------------12----|
D------------------------------*|------------------------------------------|
A-------------------------------|------------------------------------------|
E--------------------------------------------------------------------------|

E-10h12p9-------------------------------------17p12------12h15p12-13p10-----|
B--------10--10-12-12-12-10-10-10-9-9-9h10p9-------13--13--------------11---|
G-----------9-------------------------------9~-------14------------------12-|
D---------------------------------------------------------------------------|
A---------------------------------------------------------------------------|
E---------------------------------------------------------------------------|

E---10h12p9-----------------------------------------10h12p10h12-------------|
B-11-------10--10-12-12-12-10-10-10-9-9-9h10p9--10-------------10h11p10h11--|
G-------------9--------------------------------A.H.-------------------------|
D---------------------------------------------------------------------------|
A---------------------------------------------------------------------------|
E---------------------------------------------------------------------------|



E--------------------------------\10h12p10h12------------------------10-----|
B-8h10p8h10--10-/----/--/--------------------10h11p10h11-8h10p8h10--A.H.----|
G-----------A.H.-----/--/---------------------------------------------------|
D--------------------/--/---------------------------------------------------|
A-------------------13-11-12/-----------------------------------------------|
E---------------------------------------------------------------------------|


E--------------------------------------------------------16p12------12h17p12|
B----/--/-----------------------------------------------------13--13--------|
G----/--/-------------------------------------------------------14----------|
D----/--/--------------------------------------------10---------------------|
A---13-11-12-----13-12-11-12-13-12-11~---------0---12-----------------------|
E------------------------------------------------12-------------------------|
					      pm.......


E--------12-16p13-12---------------------------|
B-13--13-------------13-12~/--------|----------|
G---14------------------------------|-End with-|
D-----------------------------------|--Riff 2--|
A-----------------------------------|----------|
E----------------------------------------------|



 ***********************
* TABLATURE EXPLANATION *
 ***********************

pm.. = Palm Mute
h = Hammer On
p = Pull Off
/ = Slide Up
\ = Slide Down
A.H. = Artificial Harmonic

|-----|
|-----|
|*---*| = Repeat from...to...
|*---*|
|-----|
|-----|


|--/--|
|--/--|
|--/--| = Tremolo
|--8--|
|-----|
|-----|

  Visit MetalTabs.com for more metal tablature

bottom separator

Contact Us | Privacy Policy | Disclaimer
Copyright © 2001-2014 MetalTabs.com. All Rights Reserved.