top separator

Home

Forum

What's New

Submit a Tab

FAQ

Links

Contact Us

Link to Us

MetalTabs.com logo

Bands

0-9

A

B

C

D

E

F

G

H

I

J

K

L

M

N

O

P

Q

R

S

T

U

V

W

X

Y

Z

Search

What

Where
 

In Pieces - "Burn Covered With a Smile" Guitar Tab

Plain Text Version
More In Pieces Tabs

Hits: 3659
Updated: 2003-07-30 15:03:39

 

By:

metaltabs28

sendpm.gif

email.gif

Important note
We did our best to reach In Pieces and ask for their permission to publish this tab. Unfortunately they did not respond to our requests or we could not find a way to contact them. This tab is available online until In Pieces tells us to take it down.


#----------------------------------PLEASE NOTE---------------------------------#
#This file is the author's own work and represents their interpretation of the #
#song. You may only use this file for private study, scholarship, or research. #
#Unless specified otherwise, this is NOT an official tab from the band members.#
#------------------------------------------------------------------------------#

  Visit MetalTabs.com for more metal tablature
  
Band: In Pieces
Song: Burn Covered With A Smile
Album: Learning to Accept Silence

Copyright (c) Escape Artist Records, 2002
Version 1.0 - 6/21/03

Transcribed By: metaltabs28
Email: metaltabs28@yahoo.com

*you can find more about this band at pahardcore.com or cthardcore.com

.  - palm mute           /  - slide up to
\  - slide down to       ~  - vibrato
h  - hammer on           b  - Bend
p  - pull off            Suffixes for bend
t  - tap                 f  - full bend    h - half bend
ph - pinched harmonic    q  - quarter bend t - tap bend
*  - let note ring       ^  - Hold bend    r release bend
x  - Stuccatto           ~  - vibrato bend
,  - slight palm mute    () - ghost note, sustained note
"  - tremolo note        <> - Trill

Tuning: Eb

Intro: About 11 drum notes or so then-

Riff A
|---------------------------------------------|
|---------------------------------------------|
|---------------------------------------------|
|-444--444--444--444--------------------------|
|-444--444--444--444---2--3--5---2--3--5------|
|-222--222--222--222---2--3--5---2--3--5------|

Riff B
|-----------------------------------------------------------|
|-----------------------------------------------------------|
|-----------------------------------------------------------|
|-444-444----------------------444-444---------------5--4---|
|-222-222--2--3--3---2--3--5---222-222--2--3--5---2--5--4---|
|-222-222--2--3--5---2--3--5---222-222--2--3--5---2---------|



|----------------------------------------------------------------------|
|--7h8p7--7h8p7--7h8p7--7h8p7--7h8p7--7h8p7--7h8p7--7h8p7--------------|
|----------------------------------------------------------------------|
|----------------------------------------------------------------------|
|----------------------------------------------------------------------|
|----------------------------------------------------------------------|


|---------------------------------------------------|
|--10--8---7h8p7--7h8p7--7h8p7--7h8p7---10--12------|
|--10--8--------------------------------10--12------|
|---------------------------------------------------|
|---------------------------------------------------|
|---------------------------------------------------|



|-----------------|---------------|
|-----------------|---------------|
|-----------------|---------------|
|-44--44--44--44--|---------------|
|-44--44--44--44--|---------------|
|-22--22--22--22--|--11-1111-11---|
     Goodbye.          (^4x^)


|----------------------------------------------------------|
|----------------------------------------------------------|
|------------------------------------------------4---------|
|--------------4---------3-4----------4-5-4-2-4----5-4-5---|
|--------2/3/4-----2/3/4--------2/3/4----------------------|
|-11-111---------------------------------------------------|



|---------------------------------------------------------------|
|---------------------------------------------------------------|
|---------------------------------------------------------------|
|---------------------------------------------------------------|
|---------------------------------------------------------------|
|--11-1111-11---|--11-1111-11---|--11-1111-11---|--11-1111-11---|


|-----------------------------------------------------------|
|-----------------------------------------------------------|
|------------------------------------------------4----------|
|--------------4---------3-4----------4-5-4-2-4----5-4-5----|
|--------2/3/4-----2/3/4--------2/3/4-----------------------|
|-11-111----------------------------------------------------|


|-------------------------------------------|
|-------------------------------------------|
|--------0--------0-------------------0-----|
|--------2--------2------4------------------|
|-----2--2-----2--2---------5------5--------|
|--0--------0----------0---------0----------|


|----------------------------------------------|
|----------------------------------------------|
|--------0--------0--------------------0-------|
|--------2--------2-------4--------------------|
|-----2--2-----2--2----------5-------5---------|
|--0--------0----------0----------0------------|


|---------------------------------------------------------|
|---------------------------------------------------------|
|--4----------------------------------------------0-------|
|--4---------4-------------------4-------------4----------|
|------------4----------------2-----5-------2-------------|
|-----3--1---2--------------------------------------------|


|------------------------------------------|
|------------------------------------------|
|--4-------------------------------0-------|
|--4----------4------4----------4----------|
|-------------4---2-----5----2-------------|
|------3--1---2----------------------------|



|----------------------------------------------|
|----------------------------------------------|
|----------------------------------------------|
|----------------------------------------------|
|----------------------------------------------|
|--11-1111-11---|--11-1111-11---|--11-1111-11--|


|-----------|
|-----------|
|-----------|
|-3-3-1-3---|
|-3-3-1-3---|
|-----------|

|------------------------------------------------------|
|------------------------------------------------------|
|------------------------------------------------------|
|-33333-6-5-3-33333-2-0--33333-6-5-33333---------------|
|-33333-6-5-3-33333-2-0--33333-6-5-33333---1-1-1-3-----|
|-11111-4-3-1-11111------11111-4-3-11111---1-1-1-3-----|


|----------------------------------------------|
|----------------------------------------------|
|------------5--3--5--6------------------------|
|-33333-6-5--5--3--5--6---3--5--3---2-222222---|
|-33333-6-5--3--1--3--4---3--5--3---2-222222---|
|-11111-4-3---------------1--3-----------------|


|---------------------------|
|---------------------------|
|---------------------------|
|--444--4-4-4-4-4--77-------|
|--444--4-4-4-4-4--77-------|
|--222--2-2-2-2-2--55-------|
   ...    .   .

Then the ending is:
"please don't let me leave without saying good bye"
Riff A

Then this a few times:
|------------------------------|
|------------------------------|
|------------------------------|
|-444-444---------------5--4---|
|-222-222--2--3--5---2---------|
|-222-222--2--3--5---2---------|

Then this a few times:
|---------------------|
|---------------------|
|---------------------|
|-444-444-------------|
|-222-222--2--3--5----|
|-222-222--2--3--5----|

Then this a few times:
|--------------------------|
|--------------------------|
|--------------------------|
|-444--444--444--444-------|
|-444--444--444--444-------|
|-222--222--222--222-------|

Then end on this:
|-------------------------|
|-------------------------|
|-------------------------|
|-4---44--44--44--44--2---|
|-4---44--44--44--44--2---|
|-2---22--22--22--22--0---|

--www.inpieces.net--

*As always, any suggestions, comments, errors, or anything else is always welcome
Email:metaltabs28@yahoo.com  AIM:metaltabs28  Web:http://guitarconnection.cjb.net

  Visit MetalTabs.com for more metal tablature

bottom separator

Contact Us | Privacy Policy | Disclaimer | Legal Notice
Copyright © 2001-2014 MetalTabs.com. All Rights Reserved.