top separator

Home

Forum

What's New

Submit a Tab

FAQ

Links

Contact Us

Link to Us

MuSpy.com

MetalTabs.com logo

Bands

0-9

A

B

C

D

E

F

G

H

I

J

K

L

M

N

O

P

Q

R

S

T

U

V

W

X

Y

Z

Search

What

Where
 

Desecration - "Raping The Corpse (Desecration)" Guitar Tab

Plain Text Version
More Desecration Tabs

Hits: 2875
Rated: 4.00 out of 5 (2 votes)
Updated: 2003-07-30 14:33:56

 

Important note
This tab is available online because we obtained explicit permission from Desecration or their label.


#----------------------------------PLEASE NOTE---------------------------------#
#This file is the author's own work and represents their interpretation of the #
#song. You may only use this file for private study, scholarship, or research. #
#Unless specified otherwise, this is NOT an official tab from the band members.#
#------------------------------------------------------------------------------#

  Visit MetalTabs.com for more metal tablature
  
Band:  (DESECRATION)
Album: (GORE AND PERVERSION 2)
Song:  RAPING THE CORPSE (DESECRATION).

Copyright (c)  (COPRO) (2003)
Version 1.1 - (23.06.03)

Transcribed By: (STRAKER)
Email:          (STRAKER666@HOTMAIL.COM)


*  - palm mute           /  - slide up to
\  - slide down to       ~  - vibrato
h  - hammer on           b  - Bend
p  - pull off            Suffixes for bend
t  - tap                 f  - full bend    h - half bend
ph - pinched harmonic    q  - quarter bend t - tap bend
*  - see comment         ^  - Hold bend    r release bend
x  - Stuccatto           ~  - vibrato bend
,  - slight palm mute    () - ghost note, sustained note
"  - tremolo note        <> - Trill

Tunning C#

RIFF 1 							RIFF1A
|--------------------------------------------------|-----------------|
|--------------------------------------------------|-----------------|
|--------------------------------------------------|-----------------|
|--------------------------------------------------|-----------------|
|-2----------5567-----------3-----------------5567-|-----------------|
|-0-000-55555-----0000000-3---4-1--00000-55555-----|00000000000000000|
				                                                *****************

|-------------|
|-------------|
|-------------|
|-------------|
|-------------|
|4444444111111|
 *************

Play riff 1 again, replace riff 1A with 1B
RIFF 1B
|-------------------------------------------------------------------|
|-------------------------------------------------------------------|
|-------------------------------------------------------------------|
|-------------------------------------------------------------------|
|-------------------------------------------------------------------|
|-0000111133330001111333300001111-----------------------------------|
  *******************************

PLAY RIFF 1
PLAY RIFF 1A
PLAY RIFF 1B

FILL
|-------------------------------------------------------------------|
|-------------------------------------------------------------------|
|-------------------------------------------------------------------|
|-------------------------------------------------------------------|
|-------2p1p0--220--------3p1p0-220---------------------------------|
|-2p1p0--------000--2p1p0-------000---------------------------------|
               ***              ***

RIFF 2 repeat x4
|-------------------------|
|-------------------------|
|-------------------------|
|-------------------------|
|-----3p2p1p0-------------|
|-000---------000-3p2p1p0-|
  ***         ***

RIFF 3 repeat x4
|----------|
|----------|
|----------|
|----------|
|-0-3-4-3--|
|-0-1-2-1--|

PLAY RIFF 2
PLAY RIFF 3
PLAY RIFF 1
PLAY RIFF 1A
PLAY RIFF 1B
PLAY RIFF 1
PLAY RIFF 1A
PLAY RIFF 1B
PLAY RIFF 1B
PLAY RIFF 2
PLAY RIFF 3

RIFF 4
|-------------------------------------------------------------------|
|-------------------------------------------------------------------|
|-------------------------------------------------------------------|
|-----------------3---------------------------3------2--------------|
|-2---------------1-----------2--------0-3-4--1------0--4-----------|
|-0------------00-------------0--------0-1-2------------2-----------|
	      **                      * * *

|-------------------------------------------------------------------|
|-------------------------------------------------------------------|
|-------------------------------------------------------------------|
|-----------------3---------------------------3------2--------------|
|-2---------------1-----------2--------0-3-4--1------0-00-3p2p1p0---|
|-0------------00-------------0--------0-1-2------------------------|
               **                      * * *

|-------------------------------------------------------------------|
|-------------------------------------------------------------------|
|-------------------------------------------------------------------|
|-----------------3---------------------------3------2--------------|
|-2---------------1-----------2--------0-3-4--1------0--4-----------|
|-0------------00-------------0--------0-1-2------------2-----------|
	      **                      * * *

riff 5
|-------------------------------------------------------------------|
|-------------------------------------------------------------------|
|-------------------------------------------------------------------|
|---------------------------------------------------------repeat 2--|
|-2------2------7-----6-7-6--2------2------8------8-6-7-------------|
|-0-0000-0-0000-5-000-4-5-4--0-0000-0-0000-6-000--6-4-5-------------|
    ****   ****   ***          ****   ****   ***

RIFF 5B
|-------------------------------------------------------------------|
|-------------------------------------------------------------------|
|-------------------------------------------------------------------|
|-------------------------------------------------------------------|
|-2------2------7-----6-7-6--2------2------8-8----------------------|
|-0-0000-0-0000-5-000-4-5-4--0-0000-0-0000-6-6----------------------|
    ****   ****   ***          ****   ****

PLAY RIFF 5 X4

RIFF 6
|-------------------------------------------------------------------|
|-------------------------------------------------------------------|
|-------------------------------------------------------------------|
|-------------------------------------------------------------------|
|-------------------------------------------------00-5-00-4---------|
|-000-000-000-000-000-000-000-000-111-111-111-111-------------------|
  *** *** *** *** *** *** *** *** *** *** *** *** **   **

RIFF 7
|-------------------------------------------------------------------|
|-------------------------------------------------------------------|
|-------------------------------------------------------------------|
|-------------------------------------------------------------------|
|-------------------------------------------------00-5-00-5---------|
|-00000000000000000000000000000000111111111111111-------------------|
  *********************************************** **   **

PLAY RIFF 6
PLAY RIFF 7
PLAY RIFF 6
PLAY RIFF 7
PLAY RIFF 6
PLAY RIFF 7
PLAY RIFF 1B X8
PLAY RIFF 2
PLAY RIFF 3
PLAY RIFF 2
PLAY RIFF 3

END

  Visit MetalTabs.com for more metal tablature

bottom separator

Contact Us | Privacy Policy | Disclaimer | Legal Notice
Copyright © 2001-2014 MetalTabs.com. All Rights Reserved.