top separator

Home

Forum

What's New

Submit a Tab

FAQ

Links

Contact Us

Link to Us

MetalTabs.com logo

Bands

0-9

A

B

C

D

E

F

G

H

I

J

K

L

M

N

O

P

Q

R

S

T

U

V

W

X

Y

Z

Search

What

Where
 

Danzig - "Twist of Cain" Guitar Tab

Plain Text Version
More Danzig Tabs

Hits: 13281
Rated: 2.57 out of 5 (7 votes)
Updated: 2003-07-30 14:21:29

 

By:

freek666

sendpm.gif

email.gif

Important note
We did our best to reach Danzig and ask for their permission to publish this tab. Unfortunately they did not respond to our requests or we could not find a way to contact them. This tab is available online until Danzig tells us to take it down.


#----------------------------------PLEASE NOTE---------------------------------#
#This file is the author's own work and represents their interpretation of the #
#song. You may only use this file for private study, scholarship, or research. #
#Unless specified otherwise, this is NOT an official tab from the band members.#
#------------------------------------------------------------------------------#

  Visit MetalTabs.com for more metal tablature
  
Band: DANZIG
Album: DANZIG
Song:  Twist Of Cain



Transcribed By: Dan K. (freek666)
Email:          freekofnature666@hotmail.com



             ph - pinched harmonic
             ^  - bend
             ~  - vibrato bend
             .  - palm mute


Tunning D A D G B E
Intro
e-------------------------------------------------------------------|
B-------------------------------------------------------------------|
G---------------------ph--------------------------------------------|
D---------------------7~--------------------------------1--1--1--1--|
A-6^----7-0-6-0-3-0-0---0-6-0-3-0-0-7-7-0-6-0-3-0-0-0---1--1--1--1--|
D-------------------------------------------------------1--1--1--1--|

chorus riff
e-------------------------------------------------------------------|
B-------------------------------------------------------------------|
G---------------ph--------------------------------------------------|
D---------------7~--------------------------------1--1--1--1--------|
A/7-0-6-0-3-0-0---0-6-0-3-0-0-7-7-0-6-0-3-0-0-0---1--1--1--1--------|
D-------------------------------------------------1--1--1--1--------|

verse riff A
e-------------------------------------------------------------------|
B-------------------------------------------------------------------|
G-------------------------------------------------------------------|
D-2-2-2-2-5-5-5-5-2-2-2-2-5-5-12\0----------------------------------|
A-0-0-0-0-3-3-3-3-0-0-0-0-3-3-12\0----------------------------------|
D-----------------------------12\0----------------------------------|
  . . . . . . . . . . . . . .
verse riff B
e-------------------------------------------------------------------|
B-------------------------------------------------------------------|
G-------------------------------------------------------------------|
D-2-2-2-2-5-5-5-5----1--1--1--1-------------------------------------|
A-0-0-0-0-3-3-3-3----1--1--1--1-------------------------------------|
D--------------------1--1--1--1-------------------------------------|
  . . . . . . . .
interlude
e-------------------------------------------------------------------|
B-------------------------------------------------------------------|
G-2-2-2-----------------------5-5-5-2-7---7-------------------------|
D-2-2-2------------------1----5-5-5-2-7---7-------------------------|
A-0-0-0---------3^-0---0-1----3-3-3-0-5---5-------------------------|
D--------------------5---1------------------------------------------|

outro
e-------------------------------------------------------------------|
B-------------------------------------------------------------------|
G-2-----------------------------------------------------------------|
D-2-----------------------------------------------------------------|
A-0-----------------------------------------------------------------|
D-------------------------------------------------------------------|
listen to the song for timing and song order
it is an extremely easy song to play.

  Visit MetalTabs.com for more metal tablature

bottom separator

Contact Us | Privacy Policy | Disclaimer | Legal Notice
Copyright © 2001-2014 MetalTabs.com. All Rights Reserved.