top separator

Home

Forum

What's New

Submit a Tab

FAQ

Links

Contact Us

Link to Us

MuSpy.com

MetalTabs.com logo

Bands

0-9

A

B

C

D

E

F

G

H

I

J

K

L

M

N

O

P

Q

R

S

T

U

V

W

X

Y

Z

Search

What

Where
 

Decapitated - "Spheres of Madness" Guitar Tab

Plain Text Version
More Decapitated Tabs

Hits: 14416
Rated: 2.26 out of 5 (27 votes)
Updated: 2003-07-30 14:18:16

 

Important note
This tab is available online because we obtained explicit permission from Decapitated or their label.


#----------------------------------PLEASE NOTE---------------------------------#
#This file is the author's own work and represents their interpretation of the #
#song. You may only use this file for private study, scholarship, or research. #
#Unless specified otherwise, this is NOT an official tab from the band members.#
#------------------------------------------------------------------------------#

  Visit MetalTabs.com for more metal tablature
  
Band:  Decapitated
Album: Nihility
Song:  Spheres of Madness (track 6)

Transcribed By: Dylan Neal
Email: Arsonist_savior@hotmail.com


.  - palm mute           /  - slide up to
\  - slide down to       ~  - vibrato
h  - hammer on           b  - Bend
p  - pull off            Suffixes for bend
t  - tap                 f  - full bend    h - half bend
ph - pinched harmonic    q  - quarter bend t - tap bend
*  - see comment         ^  - Hold bend    r release bend
x  - Stuccatto           ~  - vibrato bend
,  - slight palm mute    () - ghost note, sustained note
"  - tremolo note        <> - Trill

Here it is guys! Sorry for the delay, had to transfer it onto computer
and fix it up abit.

D tunning
5:09




Riff A
|-------------------------------------------------------------|
|-------------------------------------------------------------|
|-------------------------------------------------------------|
|-------------------------------------------------------------|
|-------------------------------------------------3333-2------|
|-000-000--000-000000-000000-000-000--000-000-000-1111-0------|
  ... ...  ... ...... ...... ... ...  ... ... ... ....

Riff B
|--------------------------------------------------|
|--------------------------------------------------|
|--------------------------------------------------|
|--------------------------------------------------|
|-----------------663------------------------------|
|-885-000-663-885-----885-663----------------------|
  ... ... ... ... ... ... ...
|--------------------------------------------------|
|--------------------------------------------------|
|--------------------------------------------------|
|--------------------------------------------------|
|--------------------------------------------------|
|-885-000-663-000-000-000000-----------------------|
  ... ... ... ... ... ......

Riff C
|--------------------------------------------------|
|--------------------------------------------------|
|--------------------------------------------------|
|--------------------------------------------------|
|-(--3/5/4)-4/5------4/5-5/4-0---------------------|
|-(0-1/3/2)-2/3-0000-2/3-3/2-2-0"------------------|
                ....           .
|--------------------------------------------------|
|--------------------------------------------------|
|--------------------------------------------------|
|--------------------------------------------------|
|------4/5-5/4-0-----------------------------------|
|-0000-2/3-3/2-2-0"-0-0----------------------------|
  ....           .  . .
|--------------------------------------------------|
|--------------------------------------------------|
|--------------------------------------------------|
|--------------------------------------------------|
|-------4/5------4/5-5/4-0-------------------------|
|--0000-2/3-0000-2/3-3/2-2-0"----------------------|
   ....     ....           .
|--------------------------------------------------|
|--------------------------------------------------|
|--------------------------------------------------|
|--------------------------------------------------|
|-------4/5------4/5-5/4-0-----4-3-1---------------|
|--0000-2/3-0000-2/3-3/2-2-0-1-------4-33----------|
   ....     ....           . . . . . . ..

Riff D
|--------------------------------------------------|
|--------------------------------------------------|
|--------------------------------------------------|
|--------------------------------------------------|
|------4/5-5/4-3\----------------------------------|
|-0000-2/3-3/2-1\-(whammy)-------------------------|
  ....

|--------------------------------------------------|
|--------------------------------------------------|
|--------------------------------------------------|
|--------------------------------------------------|
|------4/5-5/4-3\-3333-333333----------------------|
|-0000-2/3-3/2-1\-1111-111111----------------------|
  ....            .... ......

|--------------------------------------------------|
|--------------------------------------------------|
|--------------------------------------------------|
|--------------------------------------------------|
|------4/5-5/4-3\----------------------------------|
|-0000-2/3-3/2-1\-(whammy)-------------------------|
  ....

|--------------------------------------------------|
|--------------------------------------------------|
|--------------------------------------------------|
|--------------------------------------------------|
|------4/5-5/4-3\------4-3-1-----------------------|
|-0000-2/3-3/2-1\--1-3-------4-3-------------------|
  ....             . . . . . . .


Riff E
(not 100% sure on this part)
|-------------------------------------------------|
|---------7p5p3-6p4p2h4---------------------------|
|-------------------------------------------------|
|-------------------------------------------------|
|-------------------------------------------------|
|-00000000----------------------------------------| (x3)

(after 3rd time)
|-------------------------------------------------|
|---------8p6p4-7p5p3h5-9p7p5-8p6p4h6-------------|
|-------------------------------------------------|
|-------------------------------------------------|
|-------------------------------------------------|
|-00000000----------------------------------------|

Riff A
Riff D
Riff E

Riff F
|--------------------------------------------------|
|--------------------------------------------------|
|--------------------------------4-----------------|
|--------------------------------2-----------------|
|-4-5-4-----2--3--4--5--4--4-5-4---------------1---|
|-2-3-2-000--11-11-11-11---2-3-2---000-333-444-3---|
            .............          ... ... ...

|-------------------------------------------------|
|-------------------------------------------------|
|--------------------------------4-5--------------|
|--------------------------------2-3--------------|
|-4-5-4-----2--3--4--5--4--4-5-4------------------|
|-2-3-2-000--11-11-11-11---2-3-2------------------|
            .............

Riff B
Riff C
Riff D
Riff E (fade out)

Again sorry for the delay for this tab, questions/corrections welcome.

  Visit MetalTabs.com for more metal tablature

bottom separator

Contact Us | Privacy Policy | Disclaimer | Legal Notice
Copyright © 2001-2014 MetalTabs.com. All Rights Reserved.