top separator

Home

Forum

What's New

Submit a Tab

FAQ

Links

Contact Us

Link to Us

MuSpy.com

MetalTabs.com logo

Bands

0-9

A

B

C

D

E

F

G

H

I

J

K

L

M

N

O

P

Q

R

S

T

U

V

W

X

Y

Z

Search

What

Where
 

Life Hates Me - "Drowned" Guitar Tab

Plain Text Version
More Life Hates Me Tabs

Hits: 2301
Updated: 2003-07-30 13:40:37

 

By:

metaltabs28

sendpm.gif

email.gif

Important note
We did our best to reach Life Hates Me and ask for their permission to publish this tab. Unfortunately they did not respond to our requests or we could not find a way to contact them. This tab is available online until Life Hates Me tells us to take it down.


#----------------------------------PLEASE NOTE---------------------------------#
#This file is the author's own work and represents their interpretation of the #
#song. You may only use this file for private study, scholarship, or research. #
#Unless specified otherwise, this is NOT an official tab from the band members.#
#------------------------------------------------------------------------------#

  Visit MetalTabs.com for more metal tablature
  
Band: Life Hates Me
Song: Drowned
Album: Imperfections

Copyright (c) Drowned Out Music, 1999/2000
Version 1.0 - 6/19/03

Transcribed By: metaltabs28
Email: metaltabs28@yahoo.com

.  - palm mute           /  - slide up to
\  - slide down to       ~  - vibrato
h  - hammer on           b  - Bend
p  - pull off            Suffixes for bend
t  - tap                 f  - full bend    h - half bend
ph - pinched harmonic    q  - quarter bend t - tap bend
*  - see comment         ^  - Hold bend    r release bend
x  - Stuccatto           rpt- repeat previous |--bar--|
,  - slight palm mute    () - ghost note, sustained note
"  - tremolo note        = - hold note
_3_- tripplet

Tuning: Eb

*notes*
I finally got their style down, and this sounds very correct to me.
When I play this I use the bridge pick-up and plenty of distortion. Palm
muted chords are still clearly heard w/distortion

At the end of this tab I have the whole thing written out again but this
one is complete with rhythm, note lenghts, and rest lengths.

Intro:         ph                  ph
|--------------12------------------12-----|
|-----------------------------------------|
|-----------------------------------------|
|-----------------------------------------|
|--33-22-33-22------33-22-33-22-----------|
|--------------------------------0--------|

Riff A         ph                   ph
|--------------12-------------------12-----|----------|
|------------------------------------------|--repeat--|
|------------------------------------------|--Riif-A--|
|------------------------------------------|----3x----|
|-33-22-33-22------33-22-33-22-------------|----------|
|-11-22-11-22------11-22-11-22--(0)--------|----------|
  .. .. .. ..      .. .. .. ..   .

                ---or---

Riff A can be played:
               ph                  ph
|--------------12------------------12----|
|----------------------------------------|
|----------------------------------------|
|----------------------------------------|
|-33-22-33-22----33-22-33-22-------------|
|-33-22-33-22----33-22-33-22--(0)--------|

^^0n Riff A hold the last pinched harmonic to start the next riff^^
^^I'm still not sure whether or not the chords are palm muted^^

Riff B (Verse 1)
   ph   ph                  ph    ph         ph
|--12=--12---------ph--ph---12=---12---ph----12--------|
|-----------12fb*-(12)(12)-------------12=-------16----|
|------------------------------------------------------|
|------------------------------------------------------|
|------------------------------------------------------|
|------------------------------------------------------|

*on the 12fb, hold the note then slowly bend (you can hear it in the song)

Riff C (Chorus 1)
|------------------------|-----|-----|-----|--------------------|
|------------------------|-----|-----|-----|--------------------|
|---------------/10101010|-----|-----|-----|--------------------|
|--4-4-444--0------------|-rpt-|-rpt-|-rpt-|---4-4-444--0=------|
|--4-4-444--0--/8-8-8-8--|-----|-----|-----|---4-4-444--0=------|
|--2-2-222---------------|-----|-----|-----|---2-2-222----------|
       _3_                                     , , ,,,  ,
                                                   _3_

Feedback and drums, then play Riff B but instead of last two notes play:

Fill 1
|--ph-----------|----------------|---------|
|-(12)--ph--ph--|ph--ph------ph--|--play---|
|--------5---7--|-5---7--ph--(7)-|--Riff---|
|---------------|---------7------|----B----|
|---------------|----------------|---------|
|---------------|----------------|---------|

Then play

Riff D (Chorus 2)                     d2
|------------------------|-----|-----|-----|--------------------|---------|
|------------------------|-----|-----|-----|--------------------|--play---|
|---------------/10101010|-----|-----|-----|--------------------|---d2----|
|--4-4-444--0------------|-rpt-|-rpt-|-rpt-|---4-4-444--0--0----|-3x-more-|
|--4-4-444--0--/8-8-8-8--|-----|-----|-----|---4-4-444--0--0----|---------|
|--2-2-222---------------|-----|-----|-----|---2-2-222----------|---------|
       _3_                                     . . ...  .  .
                                                   _3_
Riff E x4
|-------------------------------------------------|
|-------------------------------------------------|
|-------------------------------------------------|
|-5/4--5/4--5/4--5/4--5555---5/4--5/4--5/4--5/4---|
|-5/4--5/4--5/4--5/4--5555---5/4--5/4--5/4--5/4---|
|-3/2--3/2--3/2--3/2--3333---3/2--3/2--3/2--3/2---|

^^0n the last time, leave out the last -5/4-^^
                                       -5/4-
			               -3/2-
then play:
|-------------------------|
|-------------------------|
|-------------------------|
|-4-4-444--0=--hold-for---|
|-4-4-444--0=--feedback---|
|-2-2-222-----------------|
      _3_

Drums, bass, and feedback

Then guitar 2 comes in with:
|----------------------------------|
|----------------------------------|
|----------------------------------|
|----------------------------------|
|--4-5--4/5\4=---4-5--4/5\4=-/7----|
|--2-3--2/3\2=---2-3--2/3\2=-/5----|
        __3__         __3__

Riff B (omitting last 2 notes)
Fill 1
Riff B (gtr.1 holds last note)
Intro Riff
Riff A 4x
Riff D (Chorus 2)
Riff E x4

--www.lifehatesme.com--

As always, any suggestions, comments, errors, or anything else always welcome
Email:metaltabs28@yahoo.com  AIM:metaltabs28  Web:http://hidinginvain.cjb.net
				P.S.-
This sounds very accurate to me (sorry about version 1 of Clone and Erase)
My proudest effort to date since 'Godpuppet'.

=============================================================================

--Now this is the version complete with rhythm--

*if you have a tab compostion editor like "Finale" or "Bucket 'o Tab" etc,
you can type this in and hear the whole song as it is played on the disc*


Note Name & Rhythm Symbols:

whole note     -  w      *dotted notes will look like e or w,etc.
half note      -  h                                   *    *
quarter note   -  q      rest - ^ underneath note length
8th note       -  e      d - down stroke
16th note      -  s      u - up stroke
32nd note      -  t
64th note      -  f

..and for those of you who don't use the American system of note names,
the translations are:

whole note     -  semibreve
half note      -  minim
quarter note   -  crotchet
8th note       -  quaver
16th note      -  semiquaver
32nd note      -  demisemiquaver
64th note      -  hemidemisemiquaver

Below the 6 lines of tab I have these 3 or 4 lines for:

|--------note-name-symbol-----------|
|------^-mark-if-it-is-a-rest-------|
|------*-if-it-is-a-dotted-note-----|
|---------down-or-up-strum----------|This line is only for chorus

Tuning: Eb

*notes*
more notes about the rhythm at the end.

Intro:         ph                  ph
|--------------12------------------12-----|
|-----------------------------------------|
|-----------------------------------------|
|-----------------------------------------|
|--33-22-33-22------33-22-33-22-----------|
|--------------------------------0--------|

|--ssfssfssfssf-q---ssfssfssfssf-sf-q-----|
|----^--^--^--^-------^--^--^--^--^-------|
|----*--*--*--*-*-----*--*--*--*--*-*-----|

Riff A         ph                   ph
|--------------12-------------------12-----|----------|
|------------------------------------------|--repeat--|
|------------------------------------------|--Riif-A--|
|------------------------------------------|----3x----|
|-33-22-33-22------33-22-33-22-------------|----------|
|-11-22-11-22------11-22-11-22--(0)--------|----------|
  .. .. .. ..      .. .. .. ..   .

|-eefeefeefeef-q----eefeefeefeef-e-fq------|
|---^--^--^-----------^--^--^--^---^-------|
|---*--*--*----*------*--*--*--*---**------|

                ---or---

Riff A can be played:
               ph                   ph
|--------------12-------------------12---|
|----------------------------------------|
|----------------------------------------|
|----------------------------------------|
|-33-22-33-22-------33-22-33-22----------|
|-33-22-33-22-------33-22-22-22-(0)------|

|-eefeefeefeef-q----eefeefeefeef-ef-q-----|
|---^--^--^-----------^--^--^--^--^-------|
|---*--*--*----*------*--*--*--*--*-*-----|


^^0n Riff A hold the last pinched harmonic to start the next riff^^

Riff B (Verse 1)
   ph   ph                  ph    ph         ph
|--12=--12---------ph--ph---12=---12---ph----12--------|
|-----------12fb*-(12)(12)-------------12=-------16----|
|------------------------------------------------------|
|------------------------------------------------------|
|------------------------------------------------------|
|------------------------------------------------------|

|--w----q---w-----(-q)(-e)---w----q----w-----q----w----|
|------------------------------------------------------|
|-------*---------------*---------*----------*---------|

*on the 12fb, hold the note then slowly bend (you can hear it in the song)

Riff C (Chorus 1)
|-----------------------|-----|-----|-----|--------------------|
|-----------------------|-----|-----|-----|--------------------|
|--------------/10101010|-----|-----|-----|--------------------|
|--4-4-444--0-----------|-rpt-|-rpt-|-rpt-|---4-4-444--0=------|
|--4-4-444--0--/8-8-8-8-|-----|-----|-----|---4-4-444--0=------|
|--2-2-222--------------|-----|-----|-----|---2-2-222----------|
       _3_                                    , , ,,,  ,
                                                  _3_
|--e-efeee--qf--s-s-s-s-----------------------e-efeee--w-------|
|-----^------^-----------------------------------^-------------|
|--*-**-----**--*-*-*-*-----------------------*-**-------------|
|--d-d-dud--d---------------------------------d-d-dud--d-------|

Feedback and drums, then play Riff B but instead of last two notes play:

Fill 1
|--ph-----------|----------------|---------|
|-(12)--ph--ph--|ph--ph------ph--|--play---|
|--------5---7--|-5---7--ph--(7)-|--Riff---|
|---------------|---------7------|----B----|
|---------------|----------------|---------|
|---------------|----------------|---------|

|-(-q)--e---q-----q---e---e--(e)-----------|
|------------------------------------------|
|-------*---------*-------*----------------|

Then play

Riff D (Chorus 2)                     d2
|------------------------|-----|-----|-----|--------------------|---------|
|------------------------|-----|-----|-----|--------------------|--play---|
|---------------/10101010|-----|-----|-----|--------------------|---d2----|
|--4-4-444--0------------|-rpt-|-rpt-|-rpt-|---4-4-444--0--0----|-3x-more-|
|--4-4-444--0--/8-8-8-8--|-----|-----|-----|---4-4-444--0--0----|---------|
|--2-2-222---------------|-----|-----|-----|---2-2-222----------|---------|
       _3_                                     . . ...  .  .
                                                   _3_
|--e-efeee--qf--s-s-s-s------------------------e-efeee--q--q----|
|-----^------^------------------------------------^-------------|
|--*-**-----**--*-*-*-*------------------------*-**-----*-------|
|--d-d-dud--d----------------------------------d-d-dud--d--d----|

Riff E x4
|-------------------------------------------------|
|-------------------------------------------------|
|-------------------------------------------------|
|-5/4--5/4--5/4--5/4--5555---5/4--5/4--5/4--5/4---|
|-5/4--5/4--5/4--5/4--5555---5/4--5/4--5/4--5/4---|
|-3/2--3/2--3/2--3/2--3333---3/2--3/2--3/2--3/2---|

|-e-e-fe-e-fe-e-fe-e-fssss---e-e-fe-e-fe-e-fe-e---|
|-----^----^----^----^-----------^---------^------|
|---------------------****------------------------|


^^0n the last time, leave out the last -5/4-^^
                                       -5/4-
			               -3/2-
then play:
|-------------------------|
|-------------------------|
|-------------------------|
|-4-4-444--0=--hold-for---|
|-4-4-444--0=--feedback---|
|-2-2-222-----------------|
      _3_

|-e-efeee--w--------------|
|----^--------------------|
|-*-**-----*--------------|
|-d-d-dud--d--------------|

Drums, bass, and feedback

Then guitar 2 comes in with:
|----------------------------------|
|----------------------------------|
|----------------------------------|
|----------------------------------|
|--4-5--4/5\4=---4-5--4/5\4=-/7----|
|--2-3--2/3\2=---2-3--2/3\2=-/5----|
        __3__         __3__

|--h-h--s-s-q--s-h-h--s-s-q-s-q----|
|--------------^------------^------|
|-------*-*-*---------*-*-*---*----|

Riff B (omitting last 2 notes)
Fill 1
Riff B (gtr.1 holds last note)
Intro Riff
Riff A 4x
Riff D (Chorus 2)
Riff E x4

=============================================================================
extra notes:

Intro riff is done by only one guitar, then Riff B is both guitars heavily
distorted. I haven't decided whether or not it should be palm muted. I've
played it both ways and I usually just play it without muting.

For the chorus, there are two dotted 8th notes and three 8th notes (which
is the tripplet). If you don't know exactly how long those are supposed to
be you can figure it out by listening to the song.

I posted the tab without the rhythm andthen this version because I thought
this could become confusing if you want to just listen to the song.

I'll probably write this in standard notation  sometime soon.

Finally glad to be able to give you a good tab for an LHM song. Hopefully I'll
be able to post more in the future.

  Visit MetalTabs.com for more metal tablature

bottom separator

Contact Us | Privacy Policy | Disclaimer | Legal Notice
Copyright © 2001-2014 MetalTabs.com. All Rights Reserved.