top separator

Home

Forum

What's New

Submit a Tab

FAQ

Links

Contact Us

Link to Us

MetalTabs.com logo

Bands

0-9

A

B

C

D

E

F

G

H

I

J

K

L

M

N

O

P

Q

R

S

T

U

V

W

X

Y

Z

Search

What

Where
 

Avantasia - "Anywhere" Guitar Tab

Plain Text Version
More Avantasia Tabs

Hits: 7338
Rated: 4.45 out of 5 (11 votes)
Updated: 2003-06-22 14:13:19

 

Important note
This tab is available online because we obtained explicit permission from Avantasia or their label.


#----------------------------------PLEASE NOTE---------------------------------#
#This file is the author's own work and represents their interpretation of the #
#song. You may only use this file for private study, scholarship, or research. #
#Unless specified otherwise, this is NOT an official tab from the band members.#
#------------------------------------------------------------------------------#

  Visit MetalTabs.com for more metal tablature
  
Song: Anywhere
Group: Avantasia
Album: The Metal Opera Part.2
Day Tabbed: 17/06/03
Transcribed By: Marco Parisi
E-mail: trall@libero.it


Chorus (guitar enter at 2.44):
e|--------------|-----------------|--------------|-----------|
B|--------------|-----------------|--------------|-----------|
G|--------------|-----------------|--------------|-----------|
D|--------4-----|-----------4-----|--------4-----|-----------|
A|--6--2--2--4--|--6--2--4--2--4--|--6--2--2--4--|--6--4--2--|
E|--4--0-----2--|--4--0--2-----2--|--4--0-----2--|--4--2--0--|


Solo:
e|---------------------11-12--12--11-9---------------|
B|--9-12b(14)--12b(14)-----------------12------------|
G|-----------------------------------------13-9-11~--|
D|---------------------------------------------------|
A|---------------------------------------------------|
E|---------------------------------------------------|

e|---------------------11-12--12--11-9-----16----------14-------14--|
B|--9-12b(14)--12b(14)-----------------12~----17----17-------16-----|
G|-----------------------------------------------16-------16--------|
D|------------------------------------------------------------------|
A|------------------------------------------------------------------|
E|------------------------------------------------------------------|

e|--16~--16-17-19-19~--17--16-17-16-14~--14-16-17-17-16-14b(15)-----|
B|-------------------------------------------------------------17~--|
G|------------------------------------------------------------------|
D|------------------------------------------------------------------|
A|------------------------------------------------------------------|
E|------------------------------------------------------------------|

e|-------------------------17==------|
B|--17-16-17-16-----------------19=--|
G|--------------16-18==-18-----------|
D|-----------------------------------|
A|-----------------------------------|
E|-----------------------------------|


Solo (2nd guitar during solo):
e|--------------|--------------|--------------|--------------|
B|--------------|--------------|--------------|--------------|
G|--------------|--------------|--------------|--------------|
D|--6--2-----4--|--6--2-----4--|--6--2--4-----|--6--4--2-----|
A|--4--0--2--2--|--4--0--2--2--|--4--0--2--4--|--4--2--0--4--|
E|--------0-----|--------0-----|-----------6--|-----------2--|


Chorus (X4 with Fade Out):
e|--------------|-----------------|--------------|-----------|
B|--------------|-----------------|--------------|-----------|
G|--------------|-----------------|--------------|-----------|
D|--------4-----|-----------4-----|--------4-----|-----------|
A|--6--2--2--4--|--6--2--4--2--4--|--6--2--2--4--|--6--4--2--|
E|--4--0-----2--|--4--0--2-----2--|--4--0-----2--|--4--2--0--|




Symbol explanation:

/     slide up
\     slide down
b     bend up
r     bend release down
h     hammer-on
p     pull-off
~     vibrate
=     sustain
tr    trill
P.M.  palm mute
a.h.  artificial armonic
...   etc.

  Visit MetalTabs.com for more metal tablature

bottom separator

Contact Us | Privacy Policy | Disclaimer | Legal Notice
Copyright © 2001-2014 MetalTabs.com. All Rights Reserved.