top separator

Home

Forum

FAQ

Contact Us

Link to Us

MetalTabs.com logo

Bands

0-9

A

B

C

D

E

F

G

H

I

J

K

L

M

N

O

P

Q

R

S

T

U

V

W

X

Y

Z

Moonspell - "An Erotic Alchemy" Bass Tab

Plain Text Version
More Moonspell Tabs

Hits: 2204
Rated: 2.00 out of 5 (1 vote)
Updated: 2003-06-22 13:57:41

By:


#----------------------------------PLEASE NOTE---------------------------------#
#This file is the author's own work and represents their interpretation of the #
#song. You may only use this file for private study, scholarship, or research. #
#Unless specified otherwise, this is NOT an official tab from the band members.#
#------------------------------------------------------------------------------#

  Visit MetalTabs.com for more metal tablature
  
ARTIST:MOONSPELL
SONG:AN EROTIC ALCHEMY
ALBUM:WOLFHEART (TRACK N7,08:04,1995 CENTURY MEDIA)
MUSIC:MOONSPELL
LYRICS:LANGSUYAR (FERNANDO RIBEIRO)
BASS PLAYER:ARES (now singer on Deepskin)
BASS TABLATURE:NARCISO (PT) (GOTHBASS31@HOTMAIL.COM)

RIFF I
G|-----------------------------|
D|-----------------------------|
A|-5-5-5-5-5-5-1-1-1-1---------|
E|---------------------3-3-3-3-|

RIFF II
G|-----------------------------|
D|-----------------------------|
A|-3-3-3-3-3-3-----------------|
E|-------------3-3-3-3-1-1-1-1-|

RIFF III
G|--------------------------------------------|
D|---------7-----------9-----------10---------|
A|-5-5-5-5---5-7-7-7-7---7-8-8-8-8----8-10-13-|
E|--------------------------------------------|

RIFF IV
G|------------------------------------------------|
D|---------7-----------9-----------10-------------|
A|-5-5-5-5---5-7-7-7-7---7-8-8-8-8----8-10-13--5R-|
E|------------------------------------------------|

RIFF V
G|-----------------------------------------------------------------------------------------------------------------|
D|-----------------------------------------------------------------------------------------------------------------|
A|-----------------------------3-3-3-3-3-3-3-3-3-3-3-3-3-3-5-5-5-5-5-5-5-5-5-5-5-5-5-5-----------------------------|
E|-5-5-5-5-5-5-5-5-5-5-5-5-5-5---------------------------------------------------------3-3-3-3-3-3-3-3-3-3-3-3-3-3-|

RIFF VI
G|-----------------------------------------------------------------------------------------------------------------|
D|-----------------------------------------------------------------------------------------------------------------|
A|-----------------------------------------------------------------------------------------------------------------|
E|-5-5-5-5-5-5-5-5-5-5-5-5-5-5-3-3-3-3-3-3-3-3-3-3-3-3-3-3-1-1-1-1-1-1-1-1-1-1-1-1-1-1-0-0-0-0-0-0-0-0-0-0-0-0-0-0-|

RIFF VII
G|------------------|
D|------------------|
A|-5-5----7R---7-7-|
E|------------------|

RIFF VIII
G|-----------------------|
D|-----------------------|
A|-5-5---5-5----7R--7-7-|
E|-----------------------|

RIFF IX
G|---------------------------------------------------------|
D|---------------------------------------------------------|
A|-5-5-5-5-5-5-5-5-5-5-5-5-5-5-7-7-7-7-7-7-7-7-7-7-7-7-7-7-|
E|---------------------------------------------------------|

RIFF X
G|--------------------------------------------------------------------|
D|--------------------------------------------------------------------|
A|-5-5-5-5-5-5-5-5-5-5-5-5-5-5-7-7-7-7-7-7-7-7-7-7-7-7-7-7----5-------|
E|-----------------------------------------------------------------5R-|

RIFF XI
G|-------------------------------------------|
D|-----------------------------------------2-|
A|----------3---2----2-5-2-3----3-5-3----5---|
E|--5-----5---5-----------------------5------|

RIFF XII
G|----------------------------------|
D|------3-3-3---2-2-2---------------|
A|-5-5-5------5-------3-3-3-3-------|
E|----------------------------5-5-5-|

RIFF XIII
G|--------------------|
D|---------2----------|
A|-5-5-5-5---3--------|
E|--------------5-5-5-|

RIFF XIV
G|-------------------|
D|---------2---5-5-5-|
A|-5-5-5-5---3-------|
E|-------------------|

RIFF XV
G|-------------------|
D|-------------------|
A|-5----5----7R----7-|
E|-------------------|

RIFF XVI
G|---------------------------------------------------------------------------|
D|---------------------------------------------------------------------------|
A|-5-5-5-5-5-5-5-5-5-5-5-5-5-5-7-7-7-7-7-7-7-7-7-7-7-7-7-7-5----------5R-----|
E|--------------------------------------------------------------5----------5-|

STRUCTURE:
RIFF I    (6X) (00:13)
RIFF II   (2X) (00:34)
RIFF I    (2X) (00:42)
RIFF II   (2X) (00:49)
RIFF III  (1X) (00:56)
RIFF IV   (1X) (01:07)
RIFF I    (4X) (01:17)
RIFF II   (2X) (01:31)
RIFF I    (2X) (01:38)
RIFF II   (2X) (01:46)
RIFF III  (2X) (01:52)
RIFF V    (4X) (02:06)
RIFF VI   (3X) (03:03)
RIFF VII  (1X) (03:33)
RIFF VIII (1X) (03:39)
RIFF IX   (2X) (03:46)
RIFF X    (1X) (03:53)
RIFF I    (6X) (04:04)
RIFF II   (2X) (04:25)
RIFF III  (1X) (04:32)
RIFF IV   (1X) (04:39)
RIFF XI   (4X) (04:50)
RIFF XII  (1X) (05:33)
RIFF XI   (1X) (05:37)
RIFF XII  (1X) (05:40)
RIFF XI   (1X) (05:44)
RIFF XII  (1X) (05:48)
RIFF XI   (1X) (05:54)
RIFF XIII (1X) (06:02)
RIFF XIV  (1X) (06:06)
RIFF XIII (1X) (06:16)
RIFF XIV  (1X) (06:24)
RIFF V    (2X) (06:31)
RIFF VI   (2X) (06:59)
RIFF XV   (2X) (07:27)
RIFF IX   (1X) (07:41)
RIFF XVI  (1X) (07:49)

SYMBOLS: R = REST

  Visit MetalTabs.com for more metal tablature

bottom separator

Contact Us | Privacy Policy | Disclaimer
Copyright © 2001-2014 MetalTabs.com. All Rights Reserved.