top separator

Home

Forum

What's New

Submit a Tab

FAQ

Links

Contact Us

Link to Us

MuSpy.com

MetalTabs.com logo

Bands

0-9

A

B

C

D

E

F

G

H

I

J

K

L

M

N

O

P

Q

R

S

T

U

V

W

X

Y

Z

Search

What

Where
 

Katatonia - "No good can come of this" Guitar Tab

Plain Text Version
More Katatonia Tabs

Hits: 6809
Rated: 4.33 out of 5 (3 votes)
Updated: 2001-11-11 11:45:34

 

Important note
This tab is available online because we obtained explicit permission from Katatonia or their label.


#----------------------------------PLEASE NOTE---------------------------------#
#This file is the author's own work and represents their interpretation of the #
#song. You may only use this file for private study, scholarship, or research. #
#Unless specified otherwise, this is NOT an official tab from the band members.#
#------------------------------------------------------------------------------#

  Visit MetalTabs.com for more metal tablature
  
		    KATATONIA - NO GOOD CAN COME OF THIS
		     From the album "Tonight's decision"
		      Copyright 1999 Peaceville Records
		            Version 2.0 - Jul 2001

Transcribed by: HARIS DURAKOVIC

For Questions, Comments, Newest Version, or Corrections contact
HARIS DURAKOVIC: at foreverlorn@gmx.de


--N O  G O O D  C A N  C O M E  O F  T H I S--


Guitar 1

Clean
Riff 1
|---------------------------|
|---------------------------|
|-0-0--2-2--4-4-4-4-----0---|
|-4-4--0-0--0-0-0-0---5---5-|
|-2-2--2-2--2-2-2-2---------|
|---------------------------|

Electric
Riff 2
|-------------------------------|
|---------------------------6---|
|-------------------------0---0-|
|-2-2--2-2--2-2---5-5-4-4-4-4-5-|
|-2-2--2-2--2-2---2-2-2-2-------|
|-0-0--0-0--0-0---3-3-2-2-------|


Clean
Riff 3
|---------------------------2-------0-----0-----0-----------------|
|---2-----2-------2---3-----------------------------3----3------3-|
|-----0-----0---0---------2---2-2-----0-----0---------0-----0-----|
|-4-----4-----4---0-0---0---------2-----2-----2---4-----4-----4---|
|-----------------------------------------------------------------|
|-----------------------------------------------------------------|



Electric
Riff 4
|-----------------------------------------------------------------|
|-----------------------------------------------------------------|
|-------------------------2-2-2-2---------------------------------|
|-4-4-4-4-4-4-4-4-----------------4-4-4-4-4-4-4-4-4-4-4-4-4-4-4-4-|
|-7-7-7-7-7-7-7-7-5-5-5-5---------7-7-7-7-7-7-7-7-7-7-7-7-7-7-7-7-|
|-----------------------------------------------------------------|



Chorus (fourth time with additional ending "*")
1. 2. 3. 4.		  *
|------------2-/-5-5-----|-------|
|--------------------5~~-|-------|
|-4-3-/7-4~--------------|-7-6~~-|
|------------------------|-------|
|------------------------|-------|
|------------------------|-------|




Riff 5
|-----------------------------------|
|-----------------------------------|
|-9-9-9-8-8-8-7-7-7-5-5-8-12-9-8-12-|
|-----------------------------------|
|-----------------------------------|
|-----------------------------------|



Guitar 2

Electric
Riff 4
|-----------------------------|
|-----------------------------|
|-----------------------------|
|-2-2--2-2--2-2--2-2----2-2-2-|
|-2-2--2-2--2-2--2-2----2-2-2-|
|-0-0--0-0--0-0--0-0----0-0-0-|





Chorus
|-----------------------------------------------------------------|
|-----------------------------------------------------------------|
|-4-4-4-4-4-4-4-4-4-4-4-4-4-4-4-4-2-2-2-2-2-2-2-2-5-5-5-5-5-5-5-5-|
|-4-4-4-4-4-4-4-4-4-4-4-4-4-4-4-4-2-2-2-2-2-2-2-2-5-5-5-5-5-5-5-5-|
|-2-2-2-2-2-2-2-2-2-2-2-2-2-2-2-2-0-0-0-0-0-0-0-0-3-3-3-3-3-3-3-3-|
|-----------------------------------------------------------------|




Riff 5 (not sure about this!)
|---------------------------------|
|---------------------------------|
|---------------------------------|
|-2-2-2-4-4-4-3-3-3-2-2-2-2-2-2-2-|
|-2-2-2-4-4-4-3-3-3-2-2-2-2-2-2-2-|
|-0-0-0-2-2-2-1-1-1-0-0-0-0-0-0-0-|



So, that's all! Listen to the song how often you have to play the riffs
For corrections mail me: foreverlorn@gmx.de

Some riffs are corrected after Thomas C (dunno the whole name) sent me some new ideas! Thanx!

  Visit MetalTabs.com for more metal tablature

bottom separator

Contact Us | Privacy Policy | Disclaimer | Legal Notice
Copyright © 2001-2014 MetalTabs.com. All Rights Reserved.