#----------------------------------PLEASE NOTE---------------------------------#
#This file is the author's own work and represents their interpretation of the #
#song. You may only use this file for private study, scholarship, or research. #
#Unless specified otherwise, this is NOT an official tab from the band members.#
#------------------------------------------------------------------------------#

  Visit MetalTabs.com for more metal tablature
  
--- D E R A N G E D ---
                                 "God Is Dead"
                     From album: "Planfield Cemetary"
                     Copyright Lsitenable Records 2002 
                     Version 2.0 (May 2005)
                     Transcribed by: Yura Kowalchuk
                     Contact:[yura@grindcore.net]
                             [yura_kowalchuk@mail.ru]
                     HOME PAGE:http://www.blood-scrapes.nm.ru

                            TABULATURE LEGEND:
                   " - tremolo             h - hammer on
                   ~ - vibrato             \ - slide down
                   p - pull off            / - slide down
                  tr - tremolo picking     ^ - pinch harmonics
                   = - sustained note      b - bend string
                p.m. - palm muting         t - tapping

TUNING: B [B, E, A, d, g, B]

[Intro]
|-------------------|
|-------------------|
|-------------------|
|-2================-|
|-2================-|
|-0================-|

[Riff 1 (x2)]
||-----------------------------------|----------------------------||
||o----------------------------------|---------------------------o||
||-----------------------------------|----------------------------||
||------9"------10"-----9"-----------|-----9"------10"-----9"-----||
||o----------------------------------|------------------------^--o||
||--7"------7"------7"------7"--9h10-|-7"------7"------7"-----10~-||

[outro #1]
|--------------------
|--------------------
|--------------------
|--------------------
|-7-7-6-7-7"........-
|-5-5-4-5------------
  . . . .

[Riff 2a (x2)]
||---------------------------[x3]-|---------------------------------||
||o-------------------------------|--------------------------------o||
||--------------------------------|---------------------------------||
||--------------------------------|--------------------------5------||
||o-----------------(6tr7)-(5tr8)-|-----------------(6tr7)-----4---o||
||--1-000-0-3-000-0---------------|-1-000-0-3-000-0--------3-----3--||
    . ... . . ... .                 . ... . . ... .        . . . .

[Outro #2]
|---------------|-------|-----------------------|
|---------------|-------|-----------------------|
|---------------|-------|-----------------------|
|---------------|-------|-----------------------|
|-2"...........-|-------|-5---3---2============-|
|---------------|-------|-3---1---0============-|
                          .   .

[Riff 3 (x2)]
||------------------------------------------|-
||o-----------------------------------------|-
||------------------------------------------|-
||------------------------------------------|-
||o-----------------------------------------|-
||--3p2-2-2-2-4p2-2-2-2-3p2-2-2-2-4p2-2-2-2-|-
        . . .     . . .     . . .     . . .

-|---------------------------------------|-
-|---------------------------------------|-
-|---------------------------------------|-
-|---------------------------------7-----|-
-|-----------------------------------6---|-
-|-3p2-2-2-2-4p2-2-2-2-3p2-2-2-2-5-----5-|-
       . . .     . . .     . . . . . . .

-|-------------------------------------------------------------|-
-|-------------------------------------------------------------|-
-|-------------------------------------------------------------|-
-|-------------------------------------------------------------|-
-|-------------------------------------------------------------|-
-|-3p2-2-2-2-4p2-2-2-2-3p2-2-2-2-4p2-2-2-2-3p2-2-2-2-4p2-2-2-2-|-
       . . .     . . .     . . .     . . .     . . .     . . .
 ____________________________________
|ending 1
-------------------------------------||
------------------------------------o||
-------------------------^-----------||
-----7"------8"------11"-10~~~~~~----||
------------------------------------o||
-5"------6"------9"------------------||

 _____________________________________
|ending 2 (x7)
||------------------------------------||
||o----------------------------------o||
||------------------------------------||
||------7"------8"------11"-10".....--||
||o----------------------------------o||
||--5"------6"------9"----------------||

------------------------------||
------------------------------||
------------------------------||
-----7"------8"------11"-10---||
------------------------------||
-5"------6"------9"-----------||

[Riff 4a (x2)]
||----------------------|-------------------------------||
||o---------------------|------------------------------o||
||----------------------|-------------------------8-----||
||----------------------|-------------------------7-----||
||o---------------------|-------------------------6----o||
||--3-333-3-5-4-333-----|-3-333-3-5-4-333-0-000-0-------||
    . ... . . . ...       . ... . . . ... . ... .

[Riff 4b (x3)]
||-----------------------------||
||o---------------------------o||
||-------------------------8---||
||-------------------------7---||
||o------------------------6--o||
||-3-333-3-5-4-333-0-000-0-----||
   . ... . . . ... . ... .

[RIFF 4a (x2)]

[Riff 5]
||------------------------------[x3]-||
||o---------------------------------o||
||-----------------------------------||
||-----------------------------------||
||o---------------------------------o||
||--1-111-1-3-2-111-1-111-1-3-2-111--||
    . ... . . . ... . ... . . . ...

[outro #3]
|-----------------------------|
|-----------------------------|
|-----------------------------|
|-----------------------------|
|-----------------------------|
|-1-111-1-3-2-1--133221-1-----|
  . ... . . . .  ...... .

[RIFF 5 (x3)] [OUTRO #3]

[...continue]
|------------------------|------------------------|
|------------------------|------------------------|
|------------------------|------------------------|
|------------------------|------------------------|
|------------------------|------------------------|
|-133221-1----133221-1---|-133221-1----133221-1---|
  ...... .    ...... .     ...... .    ...... .

[RIFF 5 (x3)] [OUTRO #3] [RIFF 5 (x3)] [OUTRO #3]

[...continue]
|-----------------------------
|-----------------------------
|-----------------------------
|-----------------------------
|-----------------------------
|-133221-1----133221-9\......-
  ...... .    ......

[RIFF 1 (x2)] [OUTRO #1]
                                   __________________________________
[Riff 2b (x4)]                    |ending 1,3
||---------------------------[x3]-|---------------------------------||
||o-------------------------------|--------------------------------o||
||--------------------------------|---------------------------------||
||--------------------------------|--------------------------5------||
||o-----------------(6tr7)-(5tr8)-|-----------------(6tr7)-----4---o||
||--1-000-0-3-000-0---------------|-1-000-0-3-000-0--------3-----3--||
    . ... . . ... .                 . ... . . ... .        . . . .

 __________________________     ______________________________
|ending 2                      |ending 4
---------------------------|   -------------------------------|
---------------------------|   -------------------------------|
---------------------------|   -------------------------------|
---------------------------|   -------------------------------|
-----------------(6tr7)-2--|   -----------------(6tr7)--------|
-1-000-0-3-000-0--------0--|   -1-000-0-3-000-0--------000-0--|
 . ... . . ... .        .       . ... . . ... .        ... .

[outro #4]
||------------------------------------||
||o----------------------------------o||
||------------------------------------||
||------------------------------------||
||o-2"..............................-o||
||------------------------------------||

[Riff 6]
||-------------------------------[x3]-||
||o----------------------------------o||
||------------------------------------||
||------7"------8"------11"-10".....--||
||o----------------------------------o||
||--5"------6"------9"----------------||

------------------------------||
------------------------------||
------------------------------||
-----7"------8"------11"------||
------------------------------||
-5"------6"------9"-----------||

[Riff 7 (x3)]
||---------------------------||-||---------------------------||-
||o-------------------------o||-||o-------------------------o||-
||---------------------------||-||---------------------------||-
||-----5"----------5"--------||-||-----7"----------7"--------||-
||o----------4"----------^--o||-||o----------6"----------^--o||-
||--3"----3"----3"----3"-6~--||-||--5"----5"----5"----5"-8~--||-

-||---------------------------||
-||o-------------------------o||
-||---------------------------||
-||-----9"----------9"--------||
-||o----------8"----------^--o||
-||--7"----7"----7"----7"-10--||

[RIFF 4a (x2)] [RIFF 4b] [RIFF 4a (x2)]

[outro #6]
|----------|----------------------------|-----|
|----------|----------------------------|-----|
|-8=======-|-8-----8--------------------|-----|
|-7=======-|-7-----7--------------------|-----|
|-6=======-|-6-----6-----7/8-8-8--------|-----|
|----------|---000---000-5/6-6-6-555-5--|-----|
               ...   ...         ... .

[Riff 8]
|-----------------------------------------------------------------------------|
|-----------------------------------------------------------------------------|
|-----------------------------------------------------------------------------|
|-----------------------------------------------------------------------------|
|-5---------3---------5---------3---------5---------3-------------------------|
|-3-0-0-0-0-1-0-0-0-0-3-0-0-0-0-1-0-0-0-0-3-0-0-0-0-1-0-0-0-0-000-3~~-000-3~~-|
  . . . . . . . . . . . . . . . . . . . . . . . . . . . . . . ...     ...

|------------------------------------------------------------------------|
|------------------------------------------------------------------------|
|------------------------------------------------------------------------|
|------------------------------------------------------------------------|
|-5---------3---------5---------3---------5---------3--------------------|
|-3-0-0-0-0-1-0-0-0-0-3-0-0-0-0-1-0-0-0-0-3-0-0-0-0-1-0-0-0-0-3/..5/..12-|

[Riff 9 (x2)]
||-----------------------------------|------------------------------------||
||o----------------------------------|-----------------------------------o||
||-----------------------------------|------------------------------------||
||-----------------------------------|------------------------------------||
||o---7tr10----8tr11----7tr10--5-4-5-|---7tr10----8tr11----7tr10--5-4-5--o||
||--0--------0--------0--------3-2-3-|-0--------0--------0--------3-2-3---||
    . \___/  . \___/  . \___/  . . .   . \___/  . \___/  . \___/  . . .

[Riff 10a]
||---------------------------------------||
||o-------------------------------------o||
||---------------------------------------||
||--------9"----10"----------9"----------||
||o----8"-----------9"----8"-----7-6-7--o||
||--7"-------7"--------7"--------5-4-5---||
                                 . . .
[Riff 10b]
||--------------------------------------||
||o------------------------------------o||
||--------------------------------------||
||--------7"----8"----------7"----------||
||o----6"----------7"----6"-----5-4-5--o||
||--5"-------5"-------5"--------3-2-3---||
                                . . .

[Riff 11 (x5)]
||---------------6--------------------|--------------6-----------------
||o------------8---8------------------|------------8---8---------------
||-----------9-------9----------------|----------9-------9-------------
||----------------------------------5-|--------------------------------
||o-------------------------------4---|----------------------------^---
||--000000-0-----------0-000-0--3-----|-000000-0-----------0-000-0-3~~-
    ...... .           . ... .  . . .   ...... .           . ... .

--------------6--------------------|------------------------||
------------8---8------------------|-----------------------o||
----------9-------9----------------|------------------------||
---------------------------------5-|-3-----4-----5----------||
-------------------------------4---|---2-----3-----4---^---o||
-000000-0-----------0-000-0--3-----|-----1-----2-----3-4~~--||
 ...... .           . ... .  . . .

[end chord]
|----------*|
|----------*|
|----------*|
|----------*|
|-2--------*|
|-0--------*|
  .

END OF SONG

  Visit MetalTabs.com for more metal tablature