top separator

Home

Forum

What's New

Submit a Tab

FAQ

Links

Contact Us

Link to Us

MuSpy.com

MetalTabs.com logo

Bands

0-9

A

B

C

D

E

F

G

H

I

J

K

L

M

N

O

P

Q

R

S

T

U

V

W

X

Y

Z

Search

What

Where
 

Dying Fetus - "Judgement Day" Guitar Tab

Plain Text Version
More Dying Fetus Tabs

Hits: 7347
Rated: 5.00 out of 5 (1 vote)
Updated: 2006-02-11 04:29:15

 

By:

Yura

sendpm.gif

email.gif

Important note
This tab is available online because we obtained explicit permission from Dying Fetus or their label.


#----------------------------------PLEASE NOTE---------------------------------#
#This file is the author's own work and represents their interpretation of the #
#song. You may only use this file for private study, scholarship, or research. #
#Unless specified otherwise, this is NOT an official tab from the band members.#
#------------------------------------------------------------------------------#

  Visit MetalTabs.com for more metal tablature
  
Song : JUDGMENT DAY
Band : DYING FETUS
ALBUM : KILLING ON ADRENALINE
Copyright Morbid Records 1998

Version 2.0 (January'06)
Transcribed by : Yura Kowalchuk
       contact : yura_kowalchuk@mail.ru
URL: [www.blood-scrapes.nm.ru]

::TABULATURE LEGEND::
 " - tremolo             h - hammer on
 ~ - vibrato             \ - slide down
 p - pull off            / - slide down
 tr - trill              ^ - pinch harmonics
 = - sustained note      b - bend string
 p.m. - palm muting      t - tapping

Tuning is C# [C#,F#,B,e,g#,c#]

[Riff 1 (x7)]
|---------------------------------|
|---------------------------------|
|---------------------------------|
|---------------------------------|
|-4-4-----5-----4-----5---5\4-8\7-|
|-2-2-0-0-3-0-0-2-0-0-3-0-3\2-6\5-|
      . .   . .   . .   .

[Riff 2 (x2)]
|----------------------------------|----------------------------------|
|----------------------------------|----------------------------------|
|----------------------------------|----------------------------------|
|----------------------------------|---------------------4444---------|
|----------------------------------|-------------------------4444-----|
|-22222200222222222222333300003333-|-22222200222222222222--------5555-|

[Outro]
|----------------------|
|----------------------|
|----------------------|
|----------------------|
|-4=================---|
|-2=================---|

[Riff 3 (x2)]
|-------------------------------|
|-------------------------------|
|-------------------------------|
|--------6-7--7--------6--4-----|
|-4-4--4-4-5--5-4-4--4-4--2--7--|
|-2-2--2--------2-2--2-------5--|
                       .  .  .

[Riff 4 (x4)]
|-----------------------------------|
|-----------------------------------|
|-----------------------------------|
|----------6-7--7----------6--4-----|
|----------4-5--5----------4--2--7--|
|-22222222--------22222222-------5--|
                           .  .  .

[Riff 5 (x2)]
|----------------------------------|-----------------------------------|
|----------------------------------|-----------------------------------|
|----------------------------------|-----------------------------------|
|-------------4444-----------------|-------------4444---------6--4-----|
|---------4444------------4444-----|---------4444-------------4--2--7--|
|-22222222--------22222222----5555-|-22222222--------22222222-------5--|
                                                              .  .  .

[RIFF 4 (x4)] [RIFF 5 (x2)] [RIFF 1 (x6)]

[Riff 6]
|------------------------[x4]-|----------------------|
|-----------------------------|----------------------|
|-----------------------------|----------------------|
|-----------------------------|----------------------|
|-4-4----5----4----5--5-4-8-7-|-2-4------------------|
|-2-2--0-3--0-2--0-3--3-2-6-5-|-0-2------------------|
  .    .    .    .    . . . .   . .

END OF SONG

  Visit MetalTabs.com for more metal tablature

bottom separator

Contact Us | Privacy Policy | Disclaimer | Legal Notice
Copyright © 2001-2014 MetalTabs.com. All Rights Reserved.