top separator

Home

Forum

What's New

Submit a Tab

FAQ

Links

Contact Us

Link to Us

MuSpy.com

MetalTabs.com logo

Bands

0-9

A

B

C

D

E

F

G

H

I

J

K

L

M

N

O

P

Q

R

S

T

U

V

W

X

Y

Z

Search

What

Where
 

Dying Fetus - "Raped On The Altar" Guitar Tab

Plain Text Version
More Dying Fetus Tabs

Hits: 8438
Rated: 3.75 out of 5 (4 votes)
Updated: 2006-02-11 04:28:56

 

By:

Yura

sendpm.gif

email.gif

Important note
This tab is available online because we obtained explicit permission from Dying Fetus or their label.


#----------------------------------PLEASE NOTE---------------------------------#
#This file is the author's own work and represents their interpretation of the #
#song. You may only use this file for private study, scholarship, or research. #
#Unless specified otherwise, this is NOT an official tab from the band members.#
#------------------------------------------------------------------------------#

  Visit MetalTabs.com for more metal tablature
  
Song : RAPED ON THE ALTAR
Band : DYING FETUS
ALBUM : PURIFICATION THROUGH VIOLENCE
Copyright Pulverizer Records 1997

Version 2.0 (January'06)
Transcribed by : Yura Kowalchuk
       contact : yura_kowalchuk@mail.ru
URL: [www.blood-scrapes.nm.ru]

::TABULATURE LEGEND::
 " - tremolo             h - hammer on
 ~ - vibrato             \ - slide down
 p - pull off            / - slide down
 tr - trill              ^ - pinch harmonics
 = - sustained note      b - bend string
 p.m. - palm muting      t - tapping

Tuning is C# [C#,F#,B,e,g#,c#]

[Intro]        [Riff 1 (x2)]
|------------  |---------------------------------------------|-----------------
|------------  |---------------------------------------------|-----------------
|------------  |---------------------------------------------|-----------------
|------------  |-----------------5h8p5-4h7p4-5h8p5-4h7p4-----|-----------------
|-8----6-5-7-  |-554-554-554-3-4-------------------------3-4-|-554-554-554-3-4-
|-6----4-3-5-  |-332-332-332-1-2-------------------------1-2-|-332-332-332-1-2-
  .    . . .     ... ... ... . .                         . .   ... ... ... . .

 -[ending 1]---|     -[ending 2]---|
 --------------|     --------------|
 --------------|     --------------|
 --------------|     --------------|
 -8----8-6-5-7-|     -8------------|
 -6----6-4-3-5-|     -6------------|
       . . . .

[Riff 2 (x4)]
|---------------------------------|---------------------------------|
|---------------------------------|---------------------------------|
|---------------------------------|---------------------------------|
|-------------------------7-5-4---|---------------------------------|
|---------7-5-4-----------------7-|---------7-5-4---5h65h65h65h65h6-|
|-5-3-2-0-------7-5-3-2-1---------|-5-3-2-0-------7-----------------|
  . . . . . . . . . . . . . . . .   . . . . . . . .

[Outro 1]
|--------|---------------------------------|--------------------------------|
|--------|---------------------------------|--------------------------------|
|--------|---------------------------------|--------------------------------|
|--------|---------------------------------|-----------------(t12p8p5).....-|
|-----3--|-2-----------------------4-3-6\5-|-2---3---6----------------------|
|-0-0-1--|-0---------------------0-2-1-4\3-|-0---1---4---0-0----------------|
| . .    |                       . . .     | .   .   .   . .                |
|--------|---------------------------------|--------------------------------|
|--------|---------------------------------|--------------------------------|
|--------|---------------------------------|--------------------------------|
|--------|---------------------------------|-----------------(t12p8p5).....-|
|-----3--|-2---4---5---3/4---5-----4-3-6\5-|-2---3---6----------------------|
|-0-0-1--|-0-0-2-0-3-0-1/2-0-3-0-0-2-1-4\3-|-0---1---4---0-0----------------|
  . .        .   .   .     .   . . . .       .   .   .   . .

[Riff 3 (x3)]
|---------------------------------|--------------------------------|
|---------------------------------|--------------------------------|
|---------------------------------|--------------------------------|
|---------------------------------|-----------------(t12p8p5).....-|
|-2---4---5---3/4---5-----4-3-6\5-|-2---3---6----------------------|
|-0-0-2-0-3-0-1/2-0-3-0-0-2-1-4\3-|-0---1---4---0-0----------------|
    .   .   .     .   . . . .       .   .   .   . .

[Riff 4a]
|-----------------------------------------------------------------|-
|-----------------------------------------------------------------|-
|-----------------------------------------------------------------|-
|-----------------------------------------------------------------|-
|-t11p7p4-t11p7p4-t12p7p4-t11p7p4-t11p7p4-t11p7p4-t12p7p4-t11p7p4-|-
|-----------------------------------------------------------------|-

-|--------------------------------------------------------------------|
-|--------------------------------------------------------------------|
-|--------------------------------------------------------------------|
-|----------------------------------79----67--------------------------|
-|-t12p8p5-t12p8p5-t12p8p5-t12p8p5-5--5~-5--5~-4-4-4-4-4-4-5--4-------|
-|---------------------------------------------2-2-2-2-2-2-3--2---0-0-|
                                               . . . . . . .  .   . .

[Riff 4b (x2)]
|-----------------------------------------------------------------|-
|-----------------------------------------------------------------|-
|-t12p8p5-t12p8p5-t12p8p5-t12p8p5-t12p8p5-t12p8p5-t12p8p5-t12p8p5-|-
|-----------------------------------------------------------------|-
|-----------------------------------------------------------------|-
|-----------------------------------------------------------------|-
|                                                                 |
|-----------------------------------------------------------------|-
|-----------------------------------------------------------------|-
|-----------------------------------------------------------------|-
|-t12p8p5-t12p8p5-t12p8p5-t12p8p5-t12p8p5-t12p8p5-t12p8p5-t12p8p5-|-
|-----------------------------------------------------------------|-
|-----------------------------------------------------------------|-

-|-----------------------------------------------------------------|-
-|-----------------------------------------------------------------|-
-|-----------------------------------------------------------------|-
-|-t11p7p4-t11p7p4-t12p7p4-t11p7p4-t11p7p4-t11p7p4-t12p7p4-t11p7p4-|-
-|-----------------------------------------------------------------|-
-|-----------------------------------------------------------------|-
 |                                                                 |
-|-----------------------------------------------------------------|-
-|-----------------------------------------------------------------|-
-|-----------------------------------------------------------------|-
-|-----------------------------------------------------------------|-
-|-t11p7p4-t11p7p4-t12p7p4-t11p7p4-t11p7p4-t11p7p4-t12p7p4-t11p7p4-|-
-|-----------------------------------------------------------------|-

  [Ending 1]
-|--------------------------------------------------------------------|
-|--------------------------------------------------------------------|
-|----------------------------------79----67--------------------------|
-|-t12p8p5-t12p8p5-t12p8p5-t12p8p5-5--5~-5--5~------------------------|
-|---------------------------------------------4-4-4-4-4-4-5--4-------|
-|---------------------------------------------2-2-2-2-2-2-3--2---0-0-|
 |                                             . . . . . . .  .   . . |
-|--------------------------------------------------------------------|
-|--------------------------------------------------------------------|
-|--------------------------------------------------------------------|
-|----------------------------------79----67--------------------------|
-|-t12p8p5-t12p8p5-t12p8p5-t12p8p5-5--5~-5--5~-4-4-4-4-4-4-5--4-------|
-|---------------------------------------------2-2-2-2-2-2-3--2---0-0-|
                                               . . . . . . .  .   . .
  [Ending 2]
-|--------------------------------------------------------------------|
-|--------------------------------------------------------------------|
-|----------------------------------79----67--------------------------|
-|-t12p8p5-t12p8p5-t12p8p5-t12p8p5-5--5~-5--5~------------------------|
-|---------------------------------------------4-4-4-4-4-4-5--4======-|
-|---------------------------------------------2-2-2-2-2-2-3--2======-|
 |                                             . . . . . . .          |
-|--------------------------------------------------------------------|
-|--------------------------------------------------------------------|
-|--------------------------------------------------------------------|
-|----------------------------------79----67--------------------------|
-|-t12p8p5-t12p8p5-t12p8p5-t12p8p5-5--5~-5--5~-4-4-4-4-4-4-5--4======-|
-|---------------------------------------------2-2-2-2-2-2-3--2======-|
                                               . . . . . . .
[Riff 5]
|-----------------------------------------|
|-----------------------------------------|
|-----------------------------------------|
|-----------------------------------------|
|-5554-5554-5554-3-4-5554-5554-5554-8-7-6-|
|-3332-3332-3332-1-2-3332-3332-3332-6-5-4-|
| .... .... .... . . .... .... .... . . . |
|-----------------------------------------|
|-----------------------------------------|
|-----------------------------------------|
|-----------------------------------------|
|-4---------------------------------8-7-6-|
|-2---------------------------------6-5-4-|
  .                                 . . .

[RIFF 5 (x4) /both guitars/]

[Riff 6a]
|----------------------------------------------------------|
|------------------------------------------------------^---|
|------------------------------------------------------7~--|
|-5-5-----5-5------------------------------7-7-8-8-7-7-----|
|-----------------5--4--7--4--7-7-1010-9-9-----------------|
|-----2-2-----2-2-3--2--5--2-------------------------------|
  . . . . . . . . .  .  .  .  . . . .  . . . . . . . .

[Riff 6b (x3)]
|----------------------------------------------------------|
|------------------------------------------------------^---|
|------------------------------------------------------7~--|
|------------------------------------------7-7-8-8-7-7-----|
|-4-4-5-5-4-4-5-5-5--4--7--4--7-7-1010-9-9-----------------|
|-2-2-3-3-2-2-3-3-3--2--5--2-------------------------------|
  . . . . . . . . .  .  .  .  . . . .  . . . . . . . .

[acoustic outro:]
|--------------------------|----------------------------------|
|--------------------------|----------------------------------|
|--------------------------|----------------------------------|
|-----------7--5--7--8--7--|-5--7--5--4--5--3h4p3-------------|
|-7--10--9-----------------|----------------------6h7---------|
|--------------------------|----------------------------------|

[Riff 7 (x2)]
|--------------------------------------14-------------------------|-
|-----------------------------------------15-14-15----------------|-
|--------------------------7"----8"----------------15-15h16-15-14-|-
|-----------7"-5"-7"-8"-7"----5"----5"----------------------------|-
|-7"-10"-9"-------------------------------------------------------|-
|-----------------------------------------------------------------|-

-|-----------------------------------------------|
-|-----------------------------------------------|
-|-----------------------------------------------|
-|-----------7"-5"-7"-8"-7"-5"-7"-5"-4"-5"-4"----|
-|-7"-10"-9"----------------------------------7~-|
-|-----------------------------------------------|

[Outro 2]
|--------------------------------------14-------------------------|
|-----------------------------------------15-14-15----------------|
|--------------------------7"----8"----------------15-15h16-15-14-|
|-----------7"-5"-7"-8"-7"----5"----5"----------------------------|
|-7"-10"-9"-------------------------------------------------------|
|-----------------------------------------------------------------|

[Outro 3]
|-------------------|--------------------------------|-
|-------------------|--------------------------------|-
|-------------------|--------------------------------|-
|-------------------|--------------------------------|-
|-4-----------------|--------------------------------|-
|-2-----------------|--------------------------------|-
|                   |                                |
|-------------------|--------------------------------|-
|-------------------|--------------------------------|-
|-------------------|--------------------------------|-
|-------------------|--------------------------------|-
|-4--4--5--2--4--7--|-444-444-555-222-444-4/7-5--6\5-|-
|-2--2--3--0--2--5--|-222-222-333-000-222-2/5-3--4\3-|-
                      ... ... ... ... ...

[Riff 8a (x2)]
|-------------------|--------------------------------|
|-------------------|--------------------------------|
|-------------------|--------------------------------|
|-------------------|--------------------------------|
|-4--4--5--2--4--7--|-444-444-555-222-444-4/7-5--6\5-|
|-2--2--3--0--2--5--|-222-222-333-000-222-2/5-3--4\3-|
                      ... ... ... ... ...

[Riff 8b (x2)]
|---------------------------------|--------------------------------|
|---------------------------------|--------------------------------|
|---------------------------------|--------------------------------|
|---------------------------------|--------------------------------|
|-444-444-555-222-444-777-777-777-|-444-444-555-222-444-4/7-5--6\5-|
|-222-222-333-000-222-555-555-555-|-222-222-333-000-222-2/5-3--4\3-|
  ... ... ... ... ... ... ... ...   ... ... ... ... ...

[RIFF 8a (x2)]

 [ending chord]
 -|----------|-
 -|----------|-
 -|----------|-
 -|----------|-
 -|-4--------|-
 -|-2--------|-
    .

END OF SONG

  Visit MetalTabs.com for more metal tablature

bottom separator

Contact Us | Privacy Policy | Disclaimer | Legal Notice
Copyright © 2001-2014 MetalTabs.com. All Rights Reserved.