top separator

Home

Forum

What's New

Submit a Tab

FAQ

Links

Contact Us

Link to Us

MetalTabs.com logo

Bands

0-9

A

B

C

D

E

F

G

H

I

J

K

L

M

N

O

P

Q

R

S

T

U

V

W

X

Y

Z

Search

What

Where
 

Dying Fetus - "Kill Your Mother / Rape Your Dog" Guitar Tab

Plain Text Version
More Dying Fetus Tabs

Hits: 12954
Rated: 4.67 out of 5 (9 votes)
Updated: 2006-02-11 04:31:28

 

By:

Yura

sendpm.gif

email.gif

Important note
This tab is available online because we obtained explicit permission from Dying Fetus or their label.


#----------------------------------PLEASE NOTE---------------------------------#
#This file is the author's own work and represents their interpretation of the #
#song. You may only use this file for private study, scholarship, or research. #
#Unless specified otherwise, this is NOT an official tab from the band members.#
#------------------------------------------------------------------------------#

  Visit MetalTabs.com for more metal tablature
  
Song : KILL YOUR MOTHER, RAPE YOUR DOG
Band : DYING FETUS
ALBUM : KILLING ON ADRENALINE
Copyright Morbid Records 1998

Version 1.0 (January'06)
Transcribed by : Yura Kowalchuk
       contact : yura_kowalchuk@mail.ru
URL: [www.blood-scrapes.nm.ru]

::TABULATURE LEGEND::
 " - tremolo             h - hammer on
 ~ - vibrato             \ - slide down
 p - pull off            / - slide down
 tr - trill              ^ - pinch harmonics
 = - sustained note      b - bend string
 p.m. - palm muting      t - tapping

Tuning is C# [C#,F#,B,e,g#,c#]

[Riff 1]          [Riff 2a]                         [Riff 3 (x4)]
|---------------|---------------------------------|------------------|
|---------------|---------------------------------|------------------|
|---------------|---------------------------------|------------------|
|---------------|-4---------------4---------------|------------------|
|-2-3-33-32-3-2-|-2-3-3-3-4-3-3-3-2-3-3-3-4-3-3-3-|-3444-------------|
|-0-1-11-10-1-0-|---1-1-1-2-1-1-1---1-1-1-2-1-1-1-|-----666644446666-|
  . . .. .. . .     . . .   . . .   . . .   . . .

[Riff 2b]
|---------------------------------|
|---------------------------------|
|---------------------------------|
|-4---------------4---------------|
|-2-3-3-3-4-3-3-3-2-3-3-3-4-3-3-3-|
|---1-1-1-2-1-1-1---1-1-1-2-1-1-1-|
|   . . .   . . .   . . .   . . . |
|-----------------^---------------|
|-^---------------3---------------|
|-3-------------------------------|
|---------^-----------------------|
|---3-3-3-1-3-3-3---3-3-3-4-3-3-3-|
|---1-1-1---1-1-1---1-1-1---1-1-1-|
    . . .   . . .   . . .   . . .

[RIFF 3 (x4)]

[Riff 4]
|---------------------------------|
|---------------------------------|
|---------------------------------|
|---------------------------------|
|-4-3-3-3-4-3-3-3-4-3-3-3-4-3-3-3-|
|-2-1-1-1-2-1-1-1-2-1-1-1-2-1-1-1-|
     . . .   . . .   . . .   . . .

[RIFF 3 (x4)]

[Outro]
|---------------------------------------------|-----12-14-12--------|
|---------------------------------------------|---12---------12-----|
|---------------------------------------------|-13------------------|
|---------------------------------------------|---------------------|
|-4-4-7-7-4-----4-4-4-7-7-4-----4-4--7--4-----|-----------------2---|
|-2-2-5-5-2-0-0-2-2-2-5-5-2-0-0-2-2--5--2-0-0-|-----------------0---|
|           . .             . .           . . |\_______(x2)________/|
|---------------------------------------------|-----12-14-12--------|
|---------------------------------------------|---12---------12-----|
|---------------------------------------------|-13------------------|
|---------------------------------------------|---------------------|
|---------------------------------------------|-----------------2---|
|---------------------------------------------|-----------------0---|
                                               \_______(x2)________/

[Riff 5 (x4)]
|-------------------------------------------|-----12-14-12--------|
|-------------------------------------------|---12---------12-----|
|-------------------------------------------|-13------------------|
|-------------------------------------------|---------------------|
|-4--7--4-----4-4-4-7-7-4-----4-4--7--4-----|-----------------2---|
|-2--5--2-0-0-2-2-2-5-5-2-0-0-2-2--5--2-0-0-|-----------------0---|
          . .             . .           . .  \_______(x2)________/


[RIFF 1] [RIFF 2a] [RIFF 3 (x4)] [RIFF 2b] [RIFF 3 (x4)] [RIFF 1]

END OF SONG

  Visit MetalTabs.com for more metal tablature

bottom separator

Contact Us | Privacy Policy | Disclaimer | Legal Notice
Copyright © 2001-2014 MetalTabs.com. All Rights Reserved.