top separator

Home

Forum

What's New

Submit a Tab

FAQ

Links

Contact Us

Link to Us

MetalTabs.com logo

Bands

0-9

A

B

C

D

E

F

G

H

I

J

K

L

M

N

O

P

Q

R

S

T

U

V

W

X

Y

Z

Search

What

Where
 

Dying Fetus - "Killing On Adrenaline" Guitar Tab

Plain Text Version
More Dying Fetus Tabs

Hits: 10297
Rated: 5.00 out of 5 (1 vote)
Updated: 2004-08-05 07:34:01

 

By:

Yura

sendpm.gif

email.gif

Important note
This tab is available online because we obtained explicit permission from Dying Fetus or their label.


#----------------------------------PLEASE NOTE---------------------------------#
#This file is the author's own work and represents their interpretation of the #
#song. You may only use this file for private study, scholarship, or research. #
#Unless specified otherwise, this is NOT an official tab from the band members.#
#------------------------------------------------------------------------------#

  Visit MetalTabs.com for more metal tablature
  
CHECK HTTP://www.BLOOD-SCRAPES.NM.RU FOR MORE DEATH METAL TABS

                          --- D Y I N G  F E T U S ---
                            "Killing On Adrenaline" [ver. 2.0]
                     From album: "Killing On Adrenaline" (1998)
                     Transcribed by: Yura Kowalchuk
                     Contact: [yura_kowalchuk@mail.ru]
                              [blood-scrapes@nm.ru]

NOTES:
 " - tremolo
tr.. - tremolo picking notes
 x - hard palm muting
 = - sustained note

h - hammer on              ~ - vibrato
p - pull off               b - bend string
^ - pinch harmonics        p.m. - palm mute
x - muted note             t - right hand tap
/ - slide up               \ - slide down

Tuning (low to high): C#,F#,B,e,g#,c#

[Intro]
-|---------------------|
-|---------------------|
-|---------------------|
-|---------------------|
-|-222-333-666-333-222-|
-|-000-111-444-111-000-|
   ... ... ... ... ...

[Riff 1] (x2)
-|----------------------------------------|-----------------------------|
-|----------------------------------------|-----------------------------|
-|----------------------------------------|-----------------------------|
-|-------------6-------4------------------|-4740-4740-474-5850-5850-585-|
-|-4h7p4---4---4---4---2-----0-2-0--------|-----------------------------|
-|-------0-2-0---0-2-0---0-0-------2-[x3]-|-----------------------------|
         .   .   .   .   . . . . . .       tr..........................

[Riff 2] (x2)
-|--------------------------------------|-----------------------------|
-|--------------------------------------|-----------------------------|
-|--------------------------------------|-----------------------------|
-|-9-6-------6-------4------------------|-4740-4740-474-5850-5850-585-|
-|-7-4---4---4---4---2-----0-2-0--------|-----------------------------|
-|-----0-2-0---0-2-0---0-0-------2-[x3]-|-----------------------------|
       .   .   .   .   . . . . . .       tr..........................

[Riff 3a] (x4)
-|--------------------------|
-|--------------------------|
-|--------------------------|
-|-^--^--^------------------|
-|-4~-4~-4~-8-5-5-7-5-5-8-5-|
-|----------6-3-3-5-3-3-6-3-|
 |          . . . . . . . . |
-|--------------------------|
-|--------------------------|
-|--------------------------|
-|-^--^--^------------------|
-|-4~-4~-4~-8-5-5-7-5-5-8-5-|
-|----------6-3-3-5-3-3-6-3-|
            . . . . . . . .

[Riff 3b] /under Riff 3a/ (x4)
-|---------------------------|---------------------------|
-|------7----------------7---|------8----------------8---|
-|----8---8------------8---8-|----9---9------------9---9-|
-|-10-------10------10-------|-11-------11------11-------|
-|---------------------------|---------------------------|
-|-------------[x2]----------|-------------[x2]----------|

[Riff 4a] (x4)                   [Riff 4b] (x4)
-|------------------------------|------------------------------------|
-|------------------------------|------------------------------------|
-|------------------------------|------------------------------------|
-|------------------------------|------------------------------------|
-|-4-3-----6----4----7--2-2-2-2-|-4-3-------6------4------7--2-2-2-2-|
-|-2-1---0-4--0-2--0-5--0-0-0-0-|-2-1---000-4--000-2--000-5--0-0-0-0-|
   .     .    .    .    . . . .   . .   ... .  ... .  ...    . . . .

[RIFF 4a (x4)]

[Riff 5] (x4)
-|-----------------|-----------------|-----------------|-^-----^-----|
-|-----------------|-----------------|-----------------|-5-^---5-^---|
-|-----------------|-----------------|-----------------|---5-^---5-^-|
-|---------3/4-3/4-|-----------------|---------3/4-3/4-|-----5-----5-|
-|-4/5-4/5-1/2-1/2-|-4/5-4/5-3/4-3/4-|-4/5-4/5-1/2-1/2-|-------------|
-|-2/3-2/3---------|-2/3-2/3-1/2-1/2-|-2/3-2/3---------|-------------|

[Riff 6] (x8)
-|-------------------------|-[ending 1, 3,..]----|-[ending 2, 4,..]----|
-|-------------------------|---------------------|---------------------|
-|-------------------------|---------------------|---------------------|
-|-------------------------|---------------------|---------------------|
-|-4/5-4/5-4-7-8-7---------|-4/5-4/5-4-7-8-7-5---|-4/5-4/5-4-7-8-7-^---|
-|-2/3-2/3-2-5-6-5-2h3-2h3-|-2/3-2/3-2-5-6-5-3---|-2/3-2/3-2-5-6-5-3---|
           . . . .                   . . . . .             . . . .

-|-[last ending]--------|
-|----------------------|
-|----------------------|
-|----------------------|
-|-4/5-4/5-4-7-8-7-\\\--|
-|-2/3-2/3-2-5-6-5-\\\--|

[Riff 5 (x4)]

[Outro 1]
-|------------------------|
-|------------------------|
-|------------------------|Bass Solo
-|-2-1-1--2-1-1--2-1--5-5-|
 |                        |
-|------------------------|-------------------------|
-|------------------------|-------------------------|
-|------------------------|-------------------------|
-|------------------------|-------------------------|
-|------------------------|-4-3-3--4-3-3--4-3-5/6~--|
-|------------------------|-2-1-1--2-1-1--2-1-3/4~--|
                            . . .  . . .  . .

[Riff 7] (x7)
-|---------------------------|-------------------------|
-|---------------------------|-------------------------|
-|---------------------------|-------------------------|
-|---------------------------|-------------------------|
-|-4-3-3--4-3-3--4-3-6/7-6/7-|-4-3-3--4-3-3--4-3-5/6~--|
-|-2-1-1--2-1-1--2-1-4/5-4/5-|-2-1-1--2-1-1--2-1-3/4~--|
   . . .  . . .  . .           . . .  . . .  . .

[Riff 1 (x2)] [Riff 2 (x2)] [Riff 3a (x4)] [Riff 3b (x4)]

[Riff 8] (x4)
-|---------------------------------|----------------|
-|---------------------------------|----------------|
-|---------------------------------|----------------|
-|-------3-----------3-------------|-------3----3---|
-|-4/5---1-----4/5---1-----4-5-4-5-|-5--4--1--4-1-5-|
-|-2/3-0---0-0-2/3-0---0-0-2-3-2-3-|-3--2-----2---3-|
       .   . .     .   . . . . . .   x  x  x  x x x

[Outro 2]
-|---------------------------------|----------------|
-|---------------------------------|----------------|
-|---------------------------------|----------------|
-|-------3-----------3-------------|-------3----3---|
-|-4/5---1-----4/5---1-----4/5-4/5-|-5--4--1--4-1-5-|
-|-2/3-0---0-0-2/3-0---0-0-2/3-2/3-|-3--2-----2---3-|
       .   . .     .   . .           x  x  x  x x x

[RIFF 4a (x4)] [RIFF 4b (x4)]

END OF SONG

  Visit MetalTabs.com for more metal tablature

bottom separator

Contact Us | Privacy Policy | Disclaimer | Legal Notice
Copyright © 2001-2014 MetalTabs.com. All Rights Reserved.