top separator

Home

Forum

What's New

Submit a Tab

FAQ

Links

Contact Us

Link to Us

MuSpy.com

MetalTabs.com logo

Bands

0-9

A

B

C

D

E

F

G

H

I

J

K

L

M

N

O

P

Q

R

S

T

U

V

W

X

Y

Z

Search

What

Where
 

Dying Fetus - "Destroy the Opposition" Guitar Tab

Plain Text Version
More Dying Fetus Tabs

Hits: 11682
Rated: 4.00 out of 5 (4 votes)
Updated: 2004-12-14 16:04:48

 

By:

Yura

sendpm.gif

email.gif

Important note
This tab is available online because we obtained explicit permission from Dying Fetus or their label.


#----------------------------------PLEASE NOTE---------------------------------#
#This file is the author's own work and represents their interpretation of the #
#song. You may only use this file for private study, scholarship, or research. #
#Unless specified otherwise, this is NOT an official tab from the band members.#
#------------------------------------------------------------------------------#

  Visit MetalTabs.com for more metal tablature
  
CHECK HTTP://www.BLOOD-SCRAPES.NM.RU FOR MORE DEATH METAL TABS

                         --- D Y I N G  F E T U S ---
                           "Destroy the Opposition"
                     From album: "Destroy The Opposition"
                     Copyright Relapse Records 2000 
                     Transcribed by: Yura Kowalchuk
                     Contact: [yura_kowalchuk@mail.ru]
                              [blood-scrapes@nm.ru]

NOTES:
 " - tremolo
tr.. - tremolo picking notes
 x - hard palm muting
 = - sustained note
tr - trill

h - hammer on              ~ - vibrato
p - pull off               b - bend string
^ - pinch harmonics        p.m. - palm mute
x - muted note             t - right hand tap
/ - slide up               \ - slide down

Tuning (low to high): C#,F#,B,e,g#,c#

[Intro]
||------------------------------------------------------------
||------------------------------------------------------------
||------------------------------------------------------------
||---------4444--------2222---------4444----------------------
||-2-2-2-2------------------2-2-2-2--------------0h1~p0-------
||-0-0-0-0-----00000000-----0-0-0-0------1-3-1-3--------3p2p1-
   . . . .                  . . . .      . . . .

-------------------------------------------------------
-------------------------------------------------------
-------------------------------------------------------
---------4444--------2222---------4444-----------------
-2-2-2-2------------------2-2-2-2----------------------
-0-0-0-0-----00000000-----0-0-0-0------1-3-1-3-2-3-2-1-
 . . . .                  . . . .      . . . . . . . .

------------------------------------------------------------
------------------------------------------------------------
------------------------------------------------------------
---------4444--------2222---------4444----------------------
-2-2-2-2------------------2-2-2-2--------------0h1~p0-------
-0-0-0-0-----00000000-----0-0-0-0------1-3-1-3--------3p2p1-
 . . . .                  . . . .      . . . .

------------------------------------------------------------
------------------------------------------------------------
---------------------------------------//______(x2)_______\\
---------4444--------2222---------4444----------------------
-2-2-2-2------------------2-2-2-2--------------0h1~p0-------
-0-0-0-0-----00000000-----0-0-0-0------1-3-1-3--------3p2p1-
 . . . .                  . . . .      . . . .

------------------------------------------------------------
------------------------------------------------------------
------------------------------------------------------------
---------4444--------2222---------4444----------------------
-2-2-2-2------------------2-2-2-2--------------0h1~p0-------
-0-0-0-0-----00000000-----0-0-0-0------1-3-1-3--------3p2p1-
 . . . .                  . . . .      . . . .

-------------------------------------------------------
-------------------------------------------------------
-------------------------------------------------------
---------4444--------2222---------4444-----------------
-2-2-2-2------------------2-2-2-2----------------------
-0-0-0-0-----00000000-----0-0-0-0------1-3-1-3-2-3-2-1-
 . . . .                  . . . .      . . . . . . . .

------------------------------------------------------------
------------------------------------------------------------
------------------------------------------------------------
---------4444--------2222---------4444----------------------
-2-2-2-2------------------2-2-2-2--------------0h1~p0-------
-0-0-0-0-----00000000-----0-0-0-0------1-3-1-3--------3p2p1-
 . . . .                  . . . .      . . . .

---------------------------------------
---------------------------------------
---------------------------------------
---------4444--------2222---------4444-
-2-2-2-2------------------2-2-2-2------
-0-0-0-0-----00000000-----0-0-0-0------
 . . . .                  . . . .

[Part 1]
||-------------------------------[x4]-|-------------------------------------|
||------------------------------------|-------------------------------------|
||-//_______(x3)______\\--------------|-//_______(x3)______\\---------------|
||-----------^------------------------|-----------^-------------------------|
||---------0h1~p0---------------------|---------0h1~p0----------------------|
||-1-3-1-3--------3p2p1--1-3-1-3-3~~~-|-1-3-1-3--------3p2p1--1-3-1-3-3~-3~-|
   . . . .               . . . .        . . . .               . . . .

[Part 2 (x4]
||--------------------------------[x3]-|------------------------||
||-------------------------------------|------------------------||
||-------------------------------------|------------------------||
||-------------------------------------|-------------8--7-------||
||-2--4/5\4-4/5\4-2--3/4\3-3/4\3-2--2--|-2--6--5--4--6--5--8----||
||-0--2/3\2-2/3\2-0--1/2\1-1/2\1-0--0--|-0--4--3--2--------6----||
   .              .              .  .    .  .  .  .  .  .

[Part 3a (x4)]
||-----------------------------|-----------------------------------||
||-----------------------------|-----------------------------------||
||-----------------------------|-----------------------------------||
||-----------------------------|-----------------------------------||
||-7p4-----7p4-----2--2--2--2--|-7p4-----7p4------------------^----||
||-----5p4-----5p4-0--0--0--0--|-----5p4-----5p4-111122221111-2~---||
                   .  .  .  .

[Part 3b (x4)]
||----------------------------------|-----------------------------------||
||----------------------------------|------------------------------^----||
||----------------------------------|------------------------------3----||
||----------------------------------|-----------------------------------||
||-7p4-----7p4----------------------|-7p4-----7p4-----------------------||
||-----5p4-----5p4-0000000000000000-|-----5p4-----5p4-111122221111------||

[Part 4 (x2)]
||-----------------------------------------------------------------------
||-----------------------------------------------------------------------
||-------------------------------------------------3-4-6-4-3-------------
||----------3-----------4-----------5------------3-----------6-4-3-------
||----------1-----------2-----------3----------4-------------------6-4-3-
||-22222222----22222222----22222222-----2222-5---------------------------

--------------------------------------------------||
--------------------------------------------------||
--------------------------------------------------||
----------3-----------4---------------------------||
----------1-----------2---------------------------||
-22222222----22222222----222222224444444444444444-||

[PART 3b (x4)] [PART 4 (x2)]

[Part 5 (x4)]
||---------------------------------|-------------------------------||
||---------------------------------|-------------------------------||
||---------------------------------|-------------------------------||
||-----------------------7/9-9-----|-------------------------------||
||-5-4-3-2-5-4-3-2-5/7-7-5/7-7-7/9-|-5-4-3-2-5-4-3-2-5/7-7-8----7--||
||-3-2-1-0-3-2-1-0-3/5-5-------5/7-|-3-2-1-0-3-2-1-0-3/5-5-6--0-5--||
   . . . . . . . .                   . . . . . . .

[Part 6 (x2)]
||--------------------------------------------------
||--------------------------------------------------
||-------------33332222------------------------3333-
||---------3333--------3333----------------3333-----
||-----5555----------------5555--------5555---------
||-2222------------------------33332222-------------


----------14-------------------12-------------------15----------
-------14----14-------------12----12-------------15----15-------
----14----------14-------12----------12-------15----------15----
-16----------------16-14----------------14-17----------------17-
----------------------------------------------------------------
----------------------------------------------------------------

----------20----------|--------------------------------------------------
-------20----20-------|--------------------------------------------------
----20----------20----|-------------55554444------------------------5555-
-22----------------22-|---------5555--------5555----------------5555-----
----------------------|-----7777----------------7777--------7777---------
----------------------|-4444------------------------55554444-------------

----------14-------------------12-------------------16----------
-------14----14-------------12----12-------------16----16-------
----14----------14-------12----------12-------16----------16----
-16----------------16-14----------------14-18----------------18-
----------------------------------------------------------------
----------------------------------------------------------------

----------14----------||
-------14----14-------||
----14----------14----||
-16----------------16-||
----------------------||
----------------------||

[Part 7 (x2)]
||---------------------------------|---------------------------------
||---------------------------------|---------------------------------
||-------------3-3-2-2-------------|-------------3-3-2-2-------------
||---------3-3---------3-3---------|---------3-3---------3-3---------
||-----5-5-----------------5-5-----|-----5-5-----------------5-5-----
||-2-2-------------------------3-3-|-2-2-------------------------3-3-
   . . . . . . . . . . . . . . . .   . . . . . . . . . . . . . . . .

---------------------------------|---------------------------------||
---------------------------------|---------------------------------||
-------------5-5-4-4-------------|-------------5-5-4-4-------------||
---------5-5---------5-5---------|---------5-5---------5-5---------||
-----7-7-----------------7-7-----|-----7-7-----------------7-7-----||
-4-4-------------------------5-5-|-4-4-------------------------5-5-||
 . . . . . . . . . . . . . . . .   . . . . . . . . . . . . . . . .

[Part 6]

[Outro]
||--------------------------------------------------
||--------------------------------------------------
||-------------33332222------------------------3333-
||---------3333--------3333----------------3333-----
||-----5555----------------5555--------5555---------
||-2222------------------------33332222-------------


----------14-------------------12-------------------15----------
-------14----14-------------12----12-------------15----15-------
----14----------14-------12----------12-------15----------15----
-16----------------16-14----------------14-17----------------17-
----------------------------------------------------------------
----------------------------------------------------------------

----------20----------|--------------------------------------------------
-------20----20-------|---------------------------------------------^----
----20----------20----|-------------55554444------------------------5~~~-
-22----------------22-|---------5555--------5555----------------5555-----
----------------------|-----7777----------------7777--------7777---------
----------------------|-4444------------------------55554444-------------

[Part 7 (x2)]
||-------------------------|-------------------------||
||-------------------------|-------------------------||
||-------------------------|-------------------------||
||-5-4-2-5-4-2-5-4-2-------|-5-4-2-5-4-2-------------||
||-3-2-0-3-2-0-3-2-0-5-4-2-|-3-2-0-3-2-0-5-4-2-5-4-2-||
||-------------------3-2-0-|-------------3-2-0-3-2-0-||
   . . . . . . . . . . . .   . . . . . . . . . . . .

[Part 8 (x2)]
||-------------------------|-------------------------||
||-------------------------|-------------------------||
||-------------------------|-------------------------||
||-------------------------|-------------------------||
||-33-3---2----3-2---3-2---|-33-3---2----3-2---3-2---||
||-11-1---0----1-0---1-0---|-11-1---0----1-0---1-0---||
   .. .                      .. .

       [Part 9 (x6)]
-----||------------------------------|-------------------------------||
-----||------------------------------|-------------------------------||
-----||------------------------------|-------------------------------||
-----||------------------------------|-------------------4-----3-----||
-----||-2------3------6-5-2----3-3-3-|-2------3--------5-----4-------||
-12\-||-0--0-0-1--0-0-4-3-0--0-1-1-1-|-0--0-0-1--0-0-6-----5-----2-3-||
           . .    . . . .    .            . .    . . . . . . . . . .

[Part 10 (x2)]
||---------------------------|----------------------------
||---------------------------|----------------------------
||---------------------------|----------------------------
||---------------------------|----------------------------
||-2--2--3--2-6--5-2----3--3-|-2--2--3--2-6--5-2----2-2-3-
||-0--0--1--0-4--3-0--0-1--1-|-0--0--1--0-4--3-0--0-0-0-1-
   .  .  .  . .  .    .        .  .  .  . .  .

---------------------------|---------------------------------||-------
---------------------------|---------------------------------||-------
---------------------------|---------------------------------||-------
---------------------------|---------------------------------||-------
-2--2--3--2-6--5-2----3--3-|-----2---1-----------2---1-------||-2-----
-0--0--1--0-4--3-0--0-1--1-|-1-3---3---3-1-3-1-3---3---3-1-3-||-0-----
 .  .  .  . .  .    .        . . . . . . . . . . . . . . . .    .

END OF SONG

  Visit MetalTabs.com for more metal tablature

bottom separator

Contact Us | Privacy Policy | Disclaimer | Legal Notice
Copyright © 2001-2014 MetalTabs.com. All Rights Reserved.