top separator

Home

Forum

FAQ

Contact Us

Link to Us

MetalTabs.com logo

Bands

0-9

A

B

C

D

E

F

G

H

I

J

K

L

M

N

O

P

Q

R

S

T

U

V

W

X

Y

Z

Deicide - "Remnant Of A Hopeless Path" Guitar Tab

Plain Text Version
More Deicide Tabs

Hits: 2667
Rated: 3.00 out of 5 (2 votes)
Updated: 2003-06-22 12:35:43

By:

divinitysdeceas


#----------------------------------PLEASE NOTE---------------------------------#
#This file is the author's own work and represents their interpretation of the #
#song. You may only use this file for private study, scholarship, or research. #
#Unless specified otherwise, this is NOT an official tab from the band members.#
#------------------------------------------------------------------------------#

  Visit MetalTabs.com for more metal tablature
  
DEICIDE-REMNANT OF A HOPELESS PATH
FROM THE CD-INSINERATEHYMN


Transcribed by: Divinitysdecease@yahoo.com
Tune to Eb

Intro
Riff A:
Eb|----------------------------------------|
Bb|----------------------------------------|
Gb|----------------------------------------|
Db|---------4---------3---------4---3---2--|
Ab|---4---3-2---4---3-1---4---3-2---1---0--|
Eb|-0-2-0-1---0-2-0-1---0-2-0-1---0---0----|
    . . . .   . . . .   . . . .   .   .
Play Riff A 6 times

Verse
Riff B:
Gtr 1
Eb|------------------------------------------------|
Bb|------------------------------------------------|
Gb|------------------------------------------------|
Db|------------------------------------------------|
Ab|-----222222-----------------2222--111111--------|
Eb|-0000------33333300000000000----33------222222--|
    .............................................

Gtr 2
Eb|------------------------------------------------|
Bb|------------------------------------------------|
Gb|-----222222-----------------2222--111111--------|
Db|-0000------33333300000000000----33------222222--|
Ab|------------------------------------------------|
Eb|------------------------------------------------|

Gtr 1 plays Riff B 8 times
Gtr 2 plays Riff B 4 times starting on Gtr 1ís fifth time

Chorus
Riff C:
Eb|----------------------------------------------|
Bb|----------------------------------------------|
Gb|----------------------------------------------|
Db|--------3-3--------5-5--------4-4--------6-6--|
Ab|--------1-1--------3-3--------2-2--------4-4--|
Eb|-000000-----000000-----000000-----000000------|
    ......     ......     ......     ......
Play Riff C 4 times
Riff A 4 times
Riff B 8 times
Riff C 4 times
Riff A 6 times

  Visit MetalTabs.com for more metal tablature

bottom separator

Contact Us | Privacy Policy | Disclaimer
Copyright © 2001-2014 MetalTabs.com. All Rights Reserved.