top separator

Home

Forum

What's New

Submit a Tab

FAQ

Links

Contact Us

Link to Us

MuSpy.com

MetalTabs.com logo

Bands

0-9

A

B

C

D

E

F

G

H

I

J

K

L

M

N

O

P

Q

R

S

T

U

V

W

X

Y

Z

Search

What

Where
 

Cruachan - "Meaves March" Guitar Tab

Plain Text Version
More Cruachan Tabs

Hits: 4800
Rated: 5.00 out of 5 (5 votes)
Updated: 2003-06-22 12:32:26

 

By:

Darkenelf

sendpm.gif

email.gif

Important note
This tab is available online because we obtained explicit permission from Cruachan or their label.


#----------------------------------PLEASE NOTE---------------------------------#
#This file is the author's own work and represents their interpretation of the #
#song. You may only use this file for private study, scholarship, or research. #
#Unless specified otherwise, this is NOT an official tab from the band members.#
#------------------------------------------------------------------------------#

  Visit MetalTabs.com for more metal tablature
  
Band: Cruachan
Album: Tuatha Na Gael
Song: Maeves March
Tabbed by: Martijn Wietsma
Tab Date: 09-06-2003
Email: dalvanian@yahoo.com

For more tabs from me,
goto: http://www.doomish.com/go/?r=Darkenelf

Standard E Tuning

riff A
|-7--------------7-7-5h7---7p5h-----------------5-5-3h5------|
|---5--5h7h8p7p5----------------8-7\3-3-5/7\5\3--------------|
|------------------------------------------------------------|
|------------------------------------------------------------|
|------------------------------------------------------------|
|------------------------------------------------------------|

|-7--------------7-7-5h7--10-12-10---------------------------|
|---5--5h7h8p7p5-------------------12-10-12-10-8-5--5-7-5----|
|------------------------------------------------------------|
|------------------------------------------------------------|
|------------------------------------------------------------|
|------------------------------------------------------------|
						(3x)
riff B
|-3-5--7-10-7-5-3---3-5--7-10-7-5-3---3-5--7-10-7-5-3--3---------|
|--------------------------------------------------------5-5-3-5-|
|----------------------------------------------------------------|
|----------------------------------------------------------------|
|----------------------------------------------------------------|
|----------------------------------------------------------------|
						(1x)
riff C
|-7--12-12-10-12--14-12-10----------8h10-10-8h10--14-12-10h12h14p12-(p10h12)-|
|--------------------------12-10-12------------------------------------------|
|----------------------------------------------------------------------------|
|----------------------------------------------------------------------------|
|----------------------------------------------------------------------------|
|----------------------------------------------------------------------------|
						(2x)
riff D
|-12-14-15--15-14-----17-15-14--12----12---------------------|
|-----------------15---------------15------------------------|
|------------------------------------------------------------|
|------------------------------------------------------------|
|------------------------------------------------------------|
|------------------------------------------------------------|
						(2x)
riff B
|-3-5--7-10-7-5-3---3-5--7-10-7-5-3---3-5--7-10-7-5-3--3---------|
|--------------------------------------------------------5-5-3-5-|
|----------------------------------------------------------------|
|----------------------------------------------------------------|
|----------------------------------------------------------------|
|----------------------------------------------------------------|
						(1x)
riff C
|-7--12-12-10-12--14-12-10----------8h10-10-8h10--14-12-10h12h14p12-(p10h12)-|
|--------------------------12-10-12------------------------------------------|
|----------------------------------------------------------------------------|
|----------------------------------------------------------------------------|
|----------------------------------------------------------------------------|
|----------------------------------------------------------------------------|
						(2x)
riff D
|-12-14-15--15-14-----17-15-14--12----12---------------------|
|-----------------15---------------15------------------------|
|------------------------------------------------------------|
|------------------------------------------------------------|
|------------------------------------------------------------|
|------------------------------------------------------------|
						(2x)
riff B
|-3-5--7-10-7-5-3---3-5--7-10-7-5-3---3-5--7-10-7-5-3--3---------|
|--------------------------------------------------------5-5-3-5-|
|----------------------------------------------------------------|
|----------------------------------------------------------------|
|----------------------------------------------------------------|
|----------------------------------------------------------------|
						(1x)
riff E
|-5--------5--------5-3--------------------------------------|
|---6-3-6----6-3-6------6-5-3----3-5-3-----------------------|
|-----------------------------5------------------------------|
|------------------------------------------------------------|
|------------------------------------------------------------|
|------------------------------------------------------------|

|------------------------------------------------------------|
|-3-5-6--10-8-6-5-6--3-3-5-3---------------------------------|
|------------------------------------------------------------|
|------------------------------------------------------------|
|------------------------------------------------------------|
|------------------------------------------------------------|
						(4x)
riff C
|-7--12-12-10-12--14-12-10----------8h10-10-8h10--14-12-10h12h14p12-(p10h12)-|
|--------------------------12-10-12------------------------------------------|
|----------------------------------------------------------------------------|
|----------------------------------------------------------------------------|
|----------------------------------------------------------------------------|
|----------------------------------------------------------------------------|
						(2x)
 riff D
|-12-14-15--15-14-----17-15-14--12----12---------------------|
|-----------------15---------------15------------------------|
|------------------------------------------------------------|
|------------------------------------------------------------|
|------------------------------------------------------------|
|------------------------------------------------------------|
						(2x)
riff B
|-3-5--7-10-7-5-3---3-5--7-10-7-5-3---3-5--7-10-7-5-3--3---------|
|--------------------------------------------------------5-5-3-5-|
|----------------------------------------------------------------|
|----------------------------------------------------------------|
|----------------------------------------------------------------|
|----------------------------------------------------------------|
						(1x)
riff A
|-7--------------7-7-5h7---7p5h-----------------5-5-3h5------|
|---5--5h7h8p7p5----------------8-7\3-3-5/7\5\3--------------|
|------------------------------------------------------------|
|------------------------------------------------------------|
|------------------------------------------------------------|
|------------------------------------------------------------|

|-7--------------7-7-5h7--10-12-10---------------------------|
|---5--5h7h8p7p5-------------------12-10-12-10-8-5--5-7-5----|
|------------------------------------------------------------|
|------------------------------------------------------------|
|------------------------------------------------------------|
|------------------------------------------------------------|
						(2x)

  Visit MetalTabs.com for more metal tablature

bottom separator

Contact Us | Privacy Policy | Disclaimer | Legal Notice
Copyright © 2001-2014 MetalTabs.com. All Rights Reserved.