top separator

Home

Forum

What's New

Submit a Tab

FAQ

Links

Contact Us

Link to Us

MuSpy.com

MetalTabs.com logo

Bands

0-9

A

B

C

D

E

F

G

H

I

J

K

L

M

N

O

P

Q

R

S

T

U

V

W

X

Y

Z

Search

What

Where
 

Finntroll - "Aldhissla" Guitar Tab

Plain Text Version
More Finntroll Tabs

Hits: 7025
Rated: 3.00 out of 5 (8 votes)
Updated: 2003-06-21 13:21:44

 

By:

Darkenelf

sendpm.gif

email.gif

Important note
This tab is available online because we obtained explicit permission from Finntroll or their label.


#----------------------------------PLEASE NOTE---------------------------------#
#This file is the author's own work and represents their interpretation of the #
#song. You may only use this file for private study, scholarship, or research. #
#Unless specified otherwise, this is NOT an official tab from the band members.#
#------------------------------------------------------------------------------#

  Visit MetalTabs.com for more metal tablature
  
Band: Finntroll
Album: Jaktens Tid
Song: Aldhissla
Tabbed by: Martijn Wietsma
Tab Date: 06-06-2003
Email: dalvanian@yahoo.com

For more tabs from me,
goto: http://www.doomish.com/go/?r=Darkenelf

Standard E Tuning

riff A
|---------------------------------------------------------------|
|-5-3-----------------------------------------------------------|
|-----4-2---2-4--4-2--------------------------------------------|
|---------5----------5-4-2--2-4-5--2-4-5--4-2-4---2-------------|
|-----------------------------------------------5---------------|
|---------------------------------------------------------------|
						(8x)
riff B (1:02)
|---------------------------------------------------------------|
|---------------------------------------------------------------|
|---------------------------------------------------------------|
|-222-2---222-2---222-2---2-2-----------------------------------|
|-222-2---222-2---222-2---2-2-----------------------------------|
|-000-0---000-0---000-0---0-0-----------------------------------|
  xxx     xxx     xxx     x			(1x)

riff C
|---------------------------------------------------------------|
|---------------------------------------------------------------|
|---------------------------------------------------------------|
|-222-2---2-2---222-2---2-2---222-2---2-2---4-2--222------------|
|-222-2---2-2---222-2---2-2---222-2---2-2---4-2--222------------|
|-000-0---0-0---000-0---0-0---000-0---0-0---2-0--000------------|
  xxx     x     xxx     x     xxx     x     x    xx
						(8x)
Riff A+C 8x

riff D (2:08)
|---------------------------------------------------------------|
|---------------------------------------------------------------|
|---------------------------------------------------------------|
|---------------------------------------------------------------|
|-4--44--4--44--2------------4--44--4--44--0h2------------------|
|-2--22--2--22----5p4-\2-----2--22--2--22------5p4-\2-----------|
     xx     xx                  xx     xx	(2x)

riff E (2:20)
|---------------------------------------------------------------|
|---------------------------------------------------------------|
|---------------------------------------------------------------|
|---------------------------------------------------------------|
|-6--66--6--66--4------------6--66--6--66--0h4------------------|
|-4--44--4--44----7p6-\4-----4--44--4--44------7p6-\4-----------|
     xx     xx                  xx     xx	(2x)

riff D
|---------------------------------------------------------------|
|---------------------------------------------------------------|
|---------------------------------------------------------------|
|---------------------------------------------------------------|
|-4--44--4--44--2------------4--44--4--44--0h2------------------|
|-2--22--2--22----5p4-\2-----2--22--2--22------5p4-\2-----------|
     xx     xx                  xx     xx	(2x)

Play riff A+C together

riff A
|---------------------------------------------------------------|
|-5-3-----------------------------------------------------------|
|-----4-2---2-4--4-2--------------------------------------------|
|---------5----------5-4-2--2-4-5--2-4-5--4-2-4---2-------------|
|-----------------------------------------------5---------------|
|---------------------------------------------------------------|
						(8x)

riff C
|---------------------------------------------------------------|
|---------------------------------------------------------------|
|---------------------------------------------------------------|
|-222-2---2-2---222-2---2-2---222-2---2-2---4-2--222------------|
|-222-2---2-2---222-2---2-2---222-2---2-2---4-2--222------------|
|-000-0---0-0---000-0---0-0---000-0---0-0---2-0--000------------|
  xxx     x     xxx     x     xxx     x     x    xx
						(8x)
riff F (3:48)
|---------------------------------------------------------------|
|---------------------------------------------------------------|
|-----------2~-----2-2-3-2--------------------------------------|
|--------------3-5------------5-3p2-----------------------------|
|-5~--3/5~------------------------------------------------------|
|---------------------------------------------------------------|

|---------------------------------------------------------------|
|---------------------------------------------------------------|
|------2~-----2-2-3-2-------------------------------------------|
|---------3-5------------5-3p2----------------------------------|
|-3/5-----------------------------------------------------------|
|---------------------------------------------------------------|
						(4x)
riff G (4:40)
|---------------------------------------------------------------|
|---------------------------------------------------------------|
|---------------------------------------------------------------|
|----------10---10-10---------------10---10-10------------------|
|-7--7-7----8-0--8--8------7--7-7----8-0--8--8------------------|
|-5--5-5-------------------5--5-5-------------------------------|

|---------------------------------------------------------------|
|---------------------------------------------------------------|
|---------------------------------------------------------------|
|----------8---8-8------------------8---8-8---------------------|
|-5--5-5---6-0-6-6---------5--5-5---6-0-6-6---------------------|
|-3--3-3-------------------3--3-3-------------------------------|
						(2x)
riff H (chords)
|---------------------------------------------------------------|
|---------------------------------------------------------------|
|---------------------------------------------------------------|
|---------------------------------------------------------------|
|-7777-7777-7777-7777--7777-7777-7777-7777----------------------|
|-5555-5555-5555-5555--5555-5555-5555-5555----------------------|
  xxxx xxxx xxxx xxxx  xxxx xxxx xxxx xxxx

riff H (lead)
|---------------------------------------------------------------|
|---------------------------------------------------------------|
|---------------------------------------------------------------|
|----7--7-5--------------7--7-5---------------------------------|
|-5---------8--7-5-----5--------8--7-5--------------------------|
|-------------------8-------------------8-----------------------|

riff I (chords)
|---------------------------------------------------------------|
|---------------------------------------------------------------|
|---------------------------------------------------------------|
|---------------------------------------------------------------|
|-5555-5555-5555-5555--5555-5555-5555-5555----------------------|
|-3333-3333-3333-3333--3333-3333-3333-3333----------------------|
  xxxx xxxx xxxx xxxx  xxxx xxxx xxxx xxxx

riff I (lead)
|---------------------------------------------------------------|
|---------------------------------------------------------------|
|---------------3--3----------------------3--3------------------|
|----3-5-3--5-3------5-3-------3-5-3--5-3------5-3--------------|
|-5----------------------5---5---------------------5------------|
|---------------------------------------------------------------|

repeat riff H+I 3x till end of song.

  Visit MetalTabs.com for more metal tablature

bottom separator

Contact Us | Privacy Policy | Disclaimer | Legal Notice
Copyright © 2001-2014 MetalTabs.com. All Rights Reserved.