top separator

Home

Forum

What's New

Submit a Tab

FAQ

Links

Contact Us

Link to Us

MuSpy.com

MetalTabs.com logo

Bands

0-9

A

B

C

D

E

F

G

H

I

J

K

L

M

N

O

P

Q

R

S

T

U

V

W

X

Y

Z

Search

What

Where
 

Katatonia - "Without god" Guitar Tab

Plain Text Version
More Katatonia Tabs

Hits: 7736
Rated: 3.75 out of 5 (12 votes)
Updated: 2001-05-17 10:20:37

 

Important note
This tab is available online because we obtained explicit permission from Katatonia or their label.


#----------------------------------PLEASE NOTE---------------------------------#
#This file is the author's own work and represents their interpretation of the #
#song. You may only use this file for private study, scholarship, or research. #
#Unless specified otherwise, this is NOT an official tab from the band members.#
#------------------------------------------------------------------------------#

  Visit MetalTabs.com for more metal tablature
  
Artist:  Katatonia
Album:   Jhva Elohim Meth...the Revival
Track:   Without God

Tabbed by : John M
            citastro@hotmail.com
	    marym@iol.ie

6th Feb 2000


**** Tune Guitar so first note of song corresponds to Em ****

Tuning is regular -E-A-D-G-B-E-

This song also appears on the 'Dance of December Souls' CD, but I think this
version is better, so here it is...

++++++++++++++++++++++++++++++++++++++++++++++++++++++++++++++++++++++++

                            from  0:00 to 0:59
Part 1:

/= slide up, \ = slide down

Gtr 1:
      -----------------------------------------------------------
      -----------------------------------------------------------
      -----------------------------------------------------------
      2----9-9-7-----------2-------------------------------------
      2-2/-7-7-5--3-2-0-2--2-------------------------------------
      0----0-------------3-0-------------------------------------
++++++++++++++++++++++++++++++++++++++++++++++++++++++++++++++++++++++++

Part 2:                     from 1:00 to 1:09

Gtr 1:
      -----------------------------------------------------------
      -----------------------------------------------------------
      -----------------------------------------------------------
      --------------------3--------------------------------------
      -3-2---3-2---3-2----3--------------------------------------
      ----3-2---3-2---3-2-1--------------------------------------
++++++++++++++++++++++++++++++++++++++++++++++++++++++++++++++++++++++++

Part 3: 		   From 1:09 to 1:44

Gtr 1: (palm muting)

      -------------------------------------------------------------
      -------------------------------------------------------------
      -------------------------------------------------------------
      -020-32---020-2--------------353-65---353-5-3----------3---5-
      0---1--3-0----0-5-3-2-twice-3---4--6-3----3-1-6-5------3---5-
      ----------------3-1-0-------------------------4-3------1---3-
++++++++++++++++++++++++++++++++++++++++++++++++++++++++++++++++++++++++++

Part 4 			From 1:45 to 2:33

      -------------------------------------------------------------------
      -------------------------------------------------------------------
      -------------------------------------------------------------------
      ---------------------------------------------2--2----2----2-0------repeat
      -77877787-55755575-22322232-33533353---twice-0-0--5----2------33-3-
      -55555555-33333333-00000000-11111111--------------3-3--0-0----11---
+++++++++++++++++++++++++++++++++++++++++++++++++++++++++++++++++++++++++++

Part 5 			From 2:34 to 2:58

Gtr 1:
      ------------------------------------------------------------
      -----------------------------------------------------3------
      ----------------------2----------2---0-------2----2-3-------
      ---2---0-------2---2-3--twice-0-3-3-2-2-0-0-3-3-2----- twice + repeat
      0-3-3-2-2-0-0-3-3-2-----------------------------------------
      ------------------------------------------------------------
++++++++++++++++++++++++++++++++++++++++++++++++++++++++++++++++++++++++++++

Part 6 			From 2:59 to 3:34

Gtr 1 is Rhythm, gtr 2 is Lead

Gtr 1:
      -----------------------------------------------------------
      -----------------------------------------------------------
      -----------------------------------------------------------
      2----------------------------------------------------------
      0-5/-7-5--2-5-2-3-5-3-3-2----------------------------------
      --3/-5-3--0-3-0-1-3-1--------------------------------------

Gtr 2
      -----------------------------------------------------------
      -----------------------------------------------------------
      -----------------7-5-4--5-4-5/-77-9------------------------
      -2-3-0-2-2-3-0-2------5----5-------------------------------
      -----------------------------------------------------------
      -----------------------------------------------------------
++++++++++++++++++++++++++++++++++++++++++++++++++++++++++++++++++++++++++++++++++

Part 7 			From 3:34 to 4:12

Both guitars are clean, gtr 2, (the lead gtr), may well be the bass guitar playing
the lead piece, i'm not sure....

Gtr 1:

      -----------------------------------------------------------
      -----------------------------------------------------------
      -----------------------------------------------------------
      -2-2-2-2-3-3-5-5-------------------------------------------
      0-0-3-3-3-3-2-2---repeat till end of part------------------
      -----------------------------------------------------------

Gtr 2:

      -----------------------------------------------------------
      -----------------------------------------------------------
      ----------------------------2-0------5-4-2-0------5-4-2-0--
      --32-----0------------0-2-2----3-2-2--------3-2-2----------
      02--3-023-32-02320-023---3-0------3-0----------3-0--------- it's a bit longer than this
      ------------3---------------------------------------------- but that's the idea anyway!
+++++++++++++++++++++++++++++++++++++++++++++++++++++++++++++++++++++++++++++++++++++++++++++
Then play Parts 3,4,5 and 6 from 4:13 until the end at 6:50.
++++++++++++++++++++++++++++++++++++++++++++++++++++++++++++++++++++++++++++++++++++++++++++

  Visit MetalTabs.com for more metal tablature

bottom separator

Contact Us | Privacy Policy | Disclaimer | Legal Notice
Copyright © 2001-2014 MetalTabs.com. All Rights Reserved.