top separator

Home

Forum

What's New

Submit a Tab

FAQ

Links

Contact Us

Link to Us

MetalTabs.com logo

Bands

0-9

A

B

C

D

E

F

G

H

I

J

K

L

M

N

O

P

Q

R

S

T

U

V

W

X

Y

Z

Search

What

Where
 

Vintersorg - "Rainbow Demon" Guitar Tab

Plain Text Version
More Vintersorg Tabs

Hits: 7046
Rated: 3.50 out of 5 (6 votes)
Updated: 2003-06-21 12:51:52

 

Important note
This tab is available online because we obtained explicit permission from Vintersorg or their label.


#----------------------------------PLEASE NOTE---------------------------------#
#This file is the author's own work and represents their interpretation of the #
#song. You may only use this file for private study, scholarship, or research. #
#Unless specified otherwise, this is NOT an official tab from the band members.#
#------------------------------------------------------------------------------#

  Visit MetalTabs.com for more metal tablature
  
VINTERSORG
RAINBOW DEMON

Tab by: Prophet of the Dark Souls
Email : Embraceofsadness@email.it

Standard Tuning

Riff 1
|----------------------|
|----------------------|
|-5-----------5--------|
|-5-----------5--------|
|-3---6-5-3-1-3---6-5--|
|----------------------|

Verse

|---------------------------|
|---------------------------|
|-5-5-5-5-5-5-5-5-3-3-5-5---|
|-5-5-5-5-5-5-5-5-3-3-5-5---|
|-3-3-3-3-3-3-3-3-1-1-3-3---|
|--------------------------|

Chorus

|--------------------------|
|--------------------------|
|-991010--55-33-55---------|
|-991010--55-33-55---------|
|-778-8---33-11-33---------|
|--------------------------|

Riff 1 Under Solo

  Visit MetalTabs.com for more metal tablature

bottom separator

Contact Us | Privacy Policy | Disclaimer | Legal Notice
Copyright © 2001-2014 MetalTabs.com. All Rights Reserved.